Verdena - Phantastica Chords & Tabs

 

Phantastica Chords & Tabs

Verdena Chords & Tabs

Version: 1 Type: Tab 0 ratings
1 star 2 stars 3 stars 4 stars 5 stars
comments

Phantastica Tab

VERDENA - PHANTASTICA

GUITAR TAB

Intro:
Eb|---------------|---------------|---------------|---------------|
Bb|-----3------5--|---------------|---------------|---------------|
Gb|---0------0----|---7-7---------|---------------|---------------|
Db|---------------|---------------|---------------|---------------|
Ab|-1------3------|-5-------------|---------------|---------------|
Eb|---------------|---------------|---------------|---------------|


Eb|---------------|---------------|---------------|---------------|
Bb|-----3------5--|-----7---------|---------------|---------------|
Gb|---0------0----|---7-----------|---------------|---------------|
Db|---------------|---------------|---------------|---------------|
Ab|-1------3------|-5-------------|---------------|---------------|
Eb|---------------|---------------|---------------|---------------|
Nelle 2 battute che ho lasciato vuote Alberto batte sul corpo della chitarra x far risuonare le corde.

Strofa:
Eb|---------------|---------------|---------------|---------------|
Bb|-----3------5--|-----7---------|-----5---------|-----3---------|
Gb|---0------0----|---7-----------|---5-----------|---3-----------|
Db|---------------|---------------|---------------|---------------|
Ab|-1------3------|-5-------------|-3-------------|-3-------------|
Eb|---------------|---------------|---------------|---------------|

Ultima volta della strofa 1 & 2:
Eb|---------------|---------------|---------------------|-0-0-0-0-0-0-0-0-0-|
Bb|-----3------5--|-----7---------|------8-----8-----8--|-1-1-1-1-1-1-1-1-1-|
Gb|---0------0----|---7-----------|---8-----8-----8-----|-2-2-2-2-2-2-2-2-2-|
Db|---------------|---------------|---------------------|-2-2-2-2-2-2-2-2-2-|
Ab|-1------3------|-5-------------|-6-----6-----6-------|-0-0-0-0-0-0-0-0-0-|
Eb|---------------|---------------|---------------------|-------------------|

Chorus:
Eb|-----------------------------------------------------------------|
Bb|-7-7-7-7-7-7-7-7-7-7-7-5-5-5-------------------------------------|
Gb|-7-7-7-7-7-7-7-7-7-7-7-5-5-5-----3-3-3-3-3-3-3-3-3-3-3-3-3-3-3-3-|
Db|---------------------------------5-5-5-5-5-5-5-5-5-5-5-5-5-5-5-5-|x 3
Ab|-5-5-5-5-5-5-5-5-5-5-5-3-3-3-----5-5-5-5-5-5-5-5-5-5-5-5-5-5-5-5-|
Eb|---------------------------------3-3-3-3-3-3-3-3-3-3-3-3-3-3-3-3-|
[ Tab from: http://www.guitartabs.cc/tabs/v/verdena/phantastica_tab.html ]
Assolo:
Eb|---------------|-------------------------------------------|----------------------------------------------------------|
Bb|-----3-----5---|---5h7-7---8h10-10-10/1210---108-8-6-6---|------------------5h7-7---8h10-10-10/1210---108-8-6-6---|
Gb|---0-----0-----|-------------------------------------------|---0h7-7---0h9-9------------------------------------------|
Db|---------------|-------------------------------------------|----------------------------------------------------------|
Ab|-1-----3-------|-------------------------------------------|----------------------------------------------------------|
Eb|---------------|-------------------------------------------|----------------------------------------------------------|

Ultima volta strofa 3:
Eb|---------------|---------------|-------------------|
Bb|-----3------5--|-----7---------|-----7-----7-----7-|
Gb|---0------0----|---7-----------|---7-----7-----7---|
Db|---------------|---------------|-------------------|
Ab|-1------3------|-5---------5---|-5-----5-----5-----|
Eb|---------------|---------------|-------------------|

"E credo di essere anormale...": 
Eb|-----------------|-----------------|-------------------------|
Bb|-----------------|-----------------|-------------------------|
Gb|---------5-5-5-5-|---------7-7-7-7-|-------------------------|
Db|-3-3-3-3-5-5-5-5-|-5-5-5-5-7-7-7-7-|-------------------------|x 2
Ab|-3-3-3-3-3-3-3-3-|-5-5-5-5-5-5-5-5-|-------------------------|
Eb|-1-1-1-1---------|-3-3-3-3---------|-6-6-6-6-6-8-5-5-5-5-5-5-|
    
Outro:
Eb|-----------------|------------------|-------------------------|
Bb|-7--------7------|--5------------5--|-------------------------|
Gb|---7--------7----|----5--------5----|-------------------------|
Db|-----------------|------------------|-------------------------|x 2
Ab|-----5--------5--|------3----3------|-------------------------|
Eb|-----------------|------------------|-6-6-6-6-6-8-5-5-5-5-5-5-|

Probabilmente questo è il giro di tastiera e la chitarra continua con gli accordi del giro precedente...
cmq l'ho trascritto lo stesso.

Chiusura:
Eb|---------------|---------------|
Bb|-----3------5--|-5-------------|
Gb|---0------0----|-5-------------|
Db|---------------|---------------|
Ab|-1------3------|-3-------------|
Eb|---------------|---------------|

Per commenti o correzioni la mia mail è fleafly_@libero.it


Comments