Verdena - Passi Da Gigante Chords & Tabs

 

Passi Da Gigante Chords & Tabs

Verdena Chords & Tabs

Version: 1 Type: Tab 0 ratings
1 star 2 stars 3 stars 4 stars 5 stars
comments

Passi Da Gigante Tab

   
VERDENA - PASSI DA GIGANTE

L'intro dovrebbe essere così:
Eb|------------------------------------|
Bb|------------------------------------|
Gb|-------------------------------320--|
Db|-2-2-2--2-2-2--2-2-2--2-2-2---------|
Ab|-2-2-2--2-2-2--2-2-2--2-2-2---------|
Eb|-0-0-0--0-0-0--0-0-0--0-0-0---------|
   
ripetuto un pò di volte

Strofe:
Eb|---------------------|
Bb|---------------------|
Gb|---------------------|
Db|-2-2-2-2-2-2-2-2-----|
Ab|-2-2-2-2-2-2-2-2-----|
Eb|-0-0-0-0-0-0-0-0-etc-|
      palm-muted      
[ Tab from: http://www.guitartabs.cc/tabs/v/verdena/passi_da_gigante_tab.html ]
Dopo la prima strofa ripete l'intro un pò di volte, poi dopo la seconda strofa fa:
Eb|--------------------------------|
Bb|--------------------------------|
Gb|-0-0-0--0-0-0--0-0-0--0-0-0-----|
Db|-2-2-2--2-2-2--2-2-2--2-2-2-----|
Ab|-2-2-2--2-2-2--2-2-2--2-2-2-----|
Eb|-0-0-0--0-0-0--0-0-0--0-0-0-etc-|
   
Parte strumentale:
Eb|---------------------|
Bb|---------------------|
Gb|---------------------|
Db|-2-2-2x--2x--2x------|
Ab|-2-2-2x--2x--2x------|
Eb|-0-0-0x--0x--0x--etc-|

con qualche variazione ogni tanto sul tempo ( la x indica che la nota va stoppata)

Poi nel finale ritorna la strofa.



Per commenti o correzioni la mia mail è fleafly_@libero.it
Comments