Verdena - Omashee Chords & Tabs

 

Omashee Chords & Tabs

Verdena Chords & Tabs

Version: 1 Type: Tab 1 rating
1 star 2 stars 3 stars 4 stars 5 stars
comments

Omashee Tab

VERDENA - OMASHEE

Con kitarra classica


Entra dopo 4 battute:
Eb|----------12x-|
Bb|---------------|
Gb|---------------|
Db|---------------|
Ab|---------------|
Eb|---------------|

                        (4 volte)
Eb|-----------------------------|
Bb|*---------------------------*|
Gb|----9-7-6---11-9-7---9-7-6---|
Db|--9-------9--------9-------9-|
Ab|*---------------------------*|
Eb|-----------------------------|

Entra la voce:
                              (5 volte)
Eb|-----------------------------------|
Bb|*---------------------------------*|
Gb|---9-9-9---9-99-9---9-9-9---9-99-9-|
Db|--9-------9--------9-------9-------|
Ab|*---------------------------------*|
Eb|-----------------------------------|
   "Omashee, bel omashee..."

                      (4 volte)
Eb|-----------------------------|
Bb|*---------------------------*|
Gb|----9-7-6---11-9-7---9-7-6---|
Db|--9-------9--------9-------9-|
Ab|*---------------------------*|
Eb|-----------------------------|


Eb|------------------------------------------------|
Bb|------------------------------------------------|
Gb|----9-7-6---------------------------------------|
Db|--9-------9-------------------------------------|
Ab|--------------------7-5-4-----------9-7-5-------|
Eb|------------------7-------7-------7-------7-----|
   "Omashee bello...Omashee bello...Omashee bello"   
[ Tab from: http://www.guitartabs.cc/tabs/v/verdena/omashee_tab.html ]
                                        (2 volte)
Eb|---------------------------------------------|
Bb|*-10---12-----14--12-10--12------10---12----*|
Gb|---------------------------------------------|
Db|---------------------------------------------|
Ab|*-------------------------------------------*|
Eb|---------------------------------------------|
    "Not__te...  ma che not_te...   Not__te...    

                      (6 volte)
Eb|-----------------------------|
Bb|*---------------------------*|
Gb|----9-7-6---11-9-7---9-7-6---|
Db|--9-------9--------9-------9-|
Ab|*---------------------------*|
Eb|-----------------------------|

Eb|------------------------------------------------|
Bb|------------------------------------------------|
Gb|----9-7-6---------------------------------------|
Db|--9-------9-------------------------------------|
Ab|--------------------7-5-4-----------9-7-5-------|
Eb|------------------7-------7-------7-------7-----|
   "Omashee bello...Omashee bello...Omashee bello"   

                                        (2 volte)
Eb|---------------------------------------------|
Bb|*-10---12-----14--12-10--12------10---12----*|
Gb|---------------------------------------------|
Db|---------------------------------------------|
Ab|*-------------------------------------------*|
Eb|---------------------------------------------|
    "Not__te...  ma che not_te...   Not__te...    

Outro:
Eb|-----------------|-----------------|-----------------|-----------------|-----------------|
Bb|-----------------|-----------------|-----------------|-----------------|-----------------|
Gb|-----------------|-----------------|-----------------|-----------------|-----------------|
Db|-9-9-9-9-9-9-9-9-|-9-9-9-9-9-9-9-9-|-----------------|-----------------|-----------------|
Ab|-----------------|-----------------|-7-7-7-7-7-7-7-7-|-9-9-9-9-9-9-9-9-|-7-7-7-7-7-7-7-7-|
Eb|-----------------|-----------------|-----------------|-----------------|-----------------|
                                                                                  (fade out)


Per commenti o correzioni la mia mail รจ fleafly_@libero.it




Comments