Verdena - Meduse E Tappeti Chords & Tabs

 

Meduse E Tappeti Chords & Tabs

Verdena Chords & Tabs

Version: 1 Type: Bass Tab 0 ratings
1 star 2 stars 3 stars 4 stars 5 stars
comments

Meduse E Tappeti Bass Tab

MEDUSE E TAPPETI
(SOLO UN GRANDE SASSO)

Note:
/ = slide
* = tenere la nota

+Riff Principale
g||--------------------------------------------------------------------|
d||-----------------------------------------10*-9-7\-------------------|
a||--------------------------------------------------------------------|
e||-0-0-0-0-0-0-0-0-1-1-1-1-1-1-1-1/8-8-8-8----------------------------|
[ Tab from: http://www.guitartabs.cc/tabs/v/verdena/meduse_e_tappeti_btab.html ]
g||--------------------------------------------------------------------|
d||-----------------------------------------10*-10-12-10--9-10-9\------|
a||--------------------------------------------------------------------|
e||-0-0-0-0-0-0-0-0-1-1-1-1-1-1-1-1/8-8-8-8----------------------------|

+Ritornello
"Queste gocce di ruggine..."
g||--------------------------------------------------------------------|
d||--------------------------------------------------------------------|
a||--3-3-3-3-0-0-0-0------------------3*-------------------------------|
e||------------------0-0-0-0-3-3-3-3-----------------------------------|

"che scorrono... lente..."
g||--------------------------------------------------------------------|
d||--------------------------------------------------------------------|
a||--3/-5-5-5-5-5-5-5-3-3-3-3-3/5-5-5-5-5-5----------------------------|
e||--------------------------------------------------------------------|
Comments