Verdena - Luna Replace Chords & Tabs

 

Luna Replace Chords & Tabs

Verdena Chords & Tabs

Version: 1 Type: Bass Tab 0 ratings
1 star 2 stars 3 stars 4 stars 5 stars
comments

Luna Replace Bass Tab

VERDENA - LUNA 

BASS TAB

Intro (dopo l'intro di kitarra)
Gb|-------------------|
Db|-------------------|
Ab|-0-0-0-0---0-0-2-0-|x2
Db|-------------------|

Verso
Gb|---------------------------|--------------------|
Db|-------------------------5-|---------9--7--5----|             |
Ab|-7---7---5-7-5-5--5--7-7---|-7---7------------7-|             |
Db|---------------------------|--------------------|             |
                                                                 |x 2
Gb|-------------------|                                          |
Db|-------------------|                                          |
Ab|-0-0-0-0---0-0-2-0-|x3                                        |
Db|-------------------|

Chorus 1 & 3:
Gb|-----------------|-----------------|-----------------|-----------------|-----------------|-----------------| 
Db|-----------------|-----------------|-----------------|-----------------|-----------------|-----------------| 
Ab|-----------------|-----------------|-3-3-3-3-3-3-3-3-|-3-3-3-3-3-3-3-3-|-0-0-0-0-0-0-0-0-|-0-0-0-0-0-0-0-0-|
Db|-0-0-0-0-0-0-0-0-|-0-0-0-0-0-0-0-0-|-----------------|-----------------|-----------------|-----------------| 

Gb|-----------------|-----------------|-----------------|-----------------|-----------------|-----------------| 
Db|-----------------|-----------------|-----------------|-----------------|-----------------|-----------------| 
Ab|-5-5-5-5-5-5-5-5-|-5-5-5-5-5-5-5-5-|-3-3-3-3-3-3-3-3-|-3-3-3-3-3-3-3-3-|-0-0-0-0-0-0-0-0-|-9-9-9-9-9-9-9-9-|
Db|-----------------|-----------------|-----------------|-----------------|-----------------|-----------------| 

[ Tab from: http://www.guitartabs.cc/tabs/v/verdena/luna_replace_btab.html ]
Chorus 2:
Gb|-----------------|-----------------|-----------------|-----------------|-----------------|-----------------| 
Db|-----------------|-----------------|-----------------|-----------------|-----------------|-----------------| 
Ab|-5-5-5-5-5-5-5-5-|-5-5-5-5-5-5-5-5-|-3-3-3-3-3-3-3-3-|-3-3-3-3-3-3-3-3-|-0-0-0-0-0-0-0-0-|-0-0-0-0-0-0-0-0-|
Db|-----------------|-----------------|-----------------|-----------------|-----------------|-----------------| 

Gb|-----------------|-----------------|-----------------|-----------------|-----------------|-----------------| 
Db|-----------------|-----------------|-----------------|-----------------|-----------------|-----------------| 
Ab|-5-5-5-5-5-5-5-5-|-5-5-5-5-5-5-5-5-|-3-3-3-3-3-3-3-3-|-3-3-3-3-3-3-3-3-|-0-0-0-0-0-0-0-0-|-0-0-0-0-3-3-3-3-|
Db|-----------------|-----------------|-----------------|-----------------|-----------------|-----------------| 

Guitar Solo:
Gb|------------------------------------|
Db|-----5---7---9---12---14---12---14--|
Ab|-7----------------------------------|
Db|------------------------------------|

Gb|-------------------|
Db|-------------------|
Ab|-0-0-0-0---0-0-2-0-|x2
Db|-------------------|

Gb|----------------------|
Db|----------9-----------|
Ab|-12---10------9h10p9--|x2
Db|----------------------|

Gb|-------------------|
Db|-------------------|
Ab|-0-0-0-0---0-0-2-0-|x2
Db|-------------------|

Outro:
Gb|------------------------------|--------------------------------|
Db|---------------------9-9/10---|----------------------10-109---|    
Ab|-7---7---5-7-5-5--5-----------|-7---7---5-7-5-5--5-------------|x6    
Db|------------------------------|--------------------------------| 



Per commenti o correzioni la mia mail รจ fleafly_@libero.it






Comments