Verdena - Luna Chords & Tabs

 

Luna Chords & Tabs

Verdena Chords & Tabs

Version: 2 Type: Bass Tab 0 ratings
1 star 2 stars 3 stars 4 stars 5 stars
comments

Luna Bass Tab

Intro
 1^ parte(solo chitarra)
 2^ parte
|--------------------------------------------------------------------|
|--------------------------------------------------------------------|
|--2-1-1-1-1-1-1-1-2-2-2-2-2-2-2-2-1-1-1-1-1-1-1-1-2-2-2-2-2-2-2-2---|
|--------------------------------------------------------------------|


Verso
|--------------------------------------------------------------------|
|---------------------9-9------------------------9-11----------------|
|---7---7--7-7-5-7--7------7---7--7-7-5-7--7----------9\9------------|
|--------------------------------------------------------------------|

ritornello
...vedo te...
|--------------------------------------------------------------------|
|--------------------------------------------------------------------|
|-4-4-4-4-4-4-4-4-4-4-4-4-4-4-4-4-2-2-2-2-2-2-2-2-2-2-2-2-2-2-2-2----|
|--------------------------------------------------------------------|
[ Tab from: http://www.guitartabs.cc/tabs/v/verdena/luna_btab_ver_2.html ]
|--------------------------------------------------------------------|
|--------------------------------------------------------------------|
|---------------------------------4-4-4-4-4-4-4-4-4-4-4-4-4-4-4-4----|
|-4-4-4-4-4-4-4-4-4-4-4-4-4-4-4-4------------------------------------|

|--------------------------------------------------------------------|
|--------------------------------------------------------------------|
|-2-2-2-2-2-2-2-2-2-2-2-2-2-2-2-2------------------------------------|
|---------------------------------4-4-4-4-4-4-4-4-4-4-4-4-4-4-4-4----|

Solo
|--------------------------------------------------------------------|
|------------1-------------------------------------------------------|
|--2-----1-4--4-1----------------------------------------------------|
|-----------------4---2-4---2-2-2-2-2-2-2-2-2-2-2-2-2-2-2-2----------|

|--------------------------------------------------------------------|
|---------1----------------------------------------------------------|
|-----1-4---4-1-------------------2-2-2-2-2-2-2-2-2-2-2-2-2-2-2-2----|
|2--4-----------4-2-2-2-2-2-2-2-2------------------------------------|

Outro(solo basso)
|--------------------------------------------------------------------|
|----------------------9-9-10----------------------10-10-9-----------|
|-7---7--7-7-5-7--7-------------7---7--7-7-5-7--7--------------------|
|--------------------------------------------------------------------|

Enjoy
Comments