Verdena - Logorrea Chords & Tabs

 

Logorrea Chords & Tabs

Verdena Chords & Tabs

Version: 1 Type: Tab 1 rating
1 star 2 stars 3 stars 4 stars 5 stars
comments

Logorrea Tab

VERDENA - LOGORREA

Accordatura 1/2 tono sotto

Main Riff:
Eb|----------------------------------|-----------------------------------|
Bb|-----3-3-----3-3-----3-3-------5--|-----6-6-----6-6-----6-6-------5---|
Gb|-----3-3-----3-3-----3-3-------5--|-----6-6-----6-6-----6-6-------5---|
Db|----------------------------------|-----------------------------------|x 4 nell'intro, x 2 nel rit.
Ab|----------------------------------|-----------------------------------|
Eb|-3-3-----3-3-----3-3-----3-3/5----|-6-6-----6-6-----6-6-----6-65-----|
[ Tab from: http://www.guitartabs.cc/tabs/v/verdena/logorrea_tab.html ]
Verse 1 & 2:
Eb|-----------------|-----------------|-----------------|-----------------|
Bb|-----------------|-----------------|-----------------|-----------------|
Gb|-6-6-6-6-6-6-6-6-|-6-6-6-6-6-6-6-6-|-5-5-5-5-5-5-5-5-|-5-5-5-5-3-3-3-3-|
Db|-----------------|-----------------|-----------------|-----------------|x 4
Ab|-4-4-4-4-4-4-4-4-|-4-4-4-4-4-4-4-4-|-3-3-3-3-3-3-3-3-|-3-3-3-3-1-1-1-1-|
Eb|-----------------|-----------------|-----------------|-----------------|

Solo:
Eb|-----------------------------------------------------------------|
Bb|-3-3-3~-----/8-10-8-10~------------------------------------------|
Gb|----------------------------10-10-10-----------10-10-10----------|
Db|-------------------------------------10-11-10-----------10-11-10-|x 4
Ab|-----------------------------------------------------------------|
Eb|-----------------------------------------------------------------|

Verse 3 (no distorsione):
Eb|-----------------|-----------------|-----------------|-----------------|
Bb|-----------------|-----------------|-----------------|-----------------|
Gb|-----------------|-----------------|-----------------|-----------------|
Db|-----------------|-----------------|-----------------|-----------------|x 4
Ab|-4-4-4-4-4-4-4-4-|-4-4-4-4-4-4-4-4-|-3-3-3-3-3-3-3-3-|-3-3-3-3-1-1-1-1-|
Eb|-----------------|-----------------|-----------------|-----------------|



Per commenti o correzioni la mia mail รจ fleafly_@libero.it
Comments