Verdena - Logorrea Chords & Tabs

 

Logorrea Chords & Tabs

Verdena Chords & Tabs

Version: 2 Type: Bass Tab 0 ratings
1 star 2 stars 3 stars 4 stars 5 stars
comments

Logorrea Bass Tab

   
-------------------------------------------------------------------------------
			     Verdena - Logorrea
-------------------------------------------------------------------------------

Tabbed By :Ryoga86 (ThoughtsOfaDyingAtheist) 16/11/2004
e-mail: gcecchini@inwind.it

Tuning:Standard eadg

Il tab  sicuro al 100%. ho visto anche alcuni live ed ho avuto conferma...

riff 1
G|---------------------------------------------------------------------------|
D|-------2-4------2-4------2-4---------4-------7-7------7-7----7-7-----6-----|
A|---------------------------------------------------------------------------|
E|--2-2------2-2------2-2------2-2-2----5-5------5-5------5-5-----4-4-4------|
[ Tab from: http://www.guitartabs.cc/tabs/v/verdena/logorrea_btab_ver_2.html ]
riff 2
G|---------------------------------------------------------------------------|
d|----4-4------4-4------4-4---------4-------7-7------7-7------7-7------6-----|
A|---------------------------------------------------------------------------|
E|-2-2------2-2------2-2------2-2-2----5-5------5-5------5-5-----4-4-4-------|

riff3
G|-----------------------------------------------------------------------------|
D|----2---2----------------2---2--------------5--5---------------5--5----------|
A|-----------------------------------------------------------------------------|
E|2---------2-2-------2---------2-2-------5--------5-5------5---------4-4------|

Riff2 x2
Riff1 x2
riff2 x4
riff1 x2
riff2 x4
riff1 x2
riff3 x10
riff1 x2
fine sul    E|---2---|

| /  slide up
| \  slide down
| h  hammer-on
| p  pull-off
| ~  vibrato
| +  harmonic
| x  Mute note
===============================================================================
Comments