Verdena - Il Suicidio Del Samurai Chords & Tabs

 

Il Suicidio Del Samurai Chords & Tabs

Verdena Chords & Tabs

Version: 1 Type: Bass Tab 1 rating
1 star 2 stars 3 stars 4 stars 5 stars
comments

Il Suicidio Del Samurai Bass Tab

   
VERDENA - IL SUICIDIO DEI SAMURAI

BASS TAB

Accordatura 1/2 tono sotto [Eb Ab Db Gb]

Intro:
1|---------|---------|
2|---------|---------|
3|---------|---------|x 2
4|-8-----7-|-8-----7-|

Verso:
1|-----------------|-----------------|-----------------|
2|-----------------|-----------------|-----------------|
3|-0-0-0-0-0-0-0-0-|-1-1-1-1---------|-----------------|x2
4|-----------------|---------1-1-1-1-|-0-0-0-0-1-1-1-1-|
[ Tab from: http://www.guitartabs.cc/tabs/v/verdena/il_suicidio_del_samurai_btab.html ]
Chorus:
1|-----------------|-----------------|
2|-----------------|-----------------|
3|-----------------|-5-5-5-5-5-5-5-5-|x2
4|-1-1-1-1-1-1-0-0-|-----------------|

Dopo il chorus (1 volta):
1|---------|-----------------|-----------------|-----------------|
2|---------|-----------------|-----------------|-----------------|
3|---------|-0-0-0-0-0-0-0-0-|-1-1-1-1---------|-----------------|
4|-8-----7-|-----------------|---------1-1-1-1-|-0-0-0-0-1-1-1-1-|


di nuovo verso e chorus, poi il finale: Verso 14 volte e quindi chiude con:
1|-----------------|-----------------|
2|-----------------|-----------------|
3|-0-0-0-0-0-0-0-0-|-1---------------|
4|-----------------|-----------------|


Per commenti o correzioni la mia mail รจ fleafly_@libero.it


Comments