Verdena - Glamodrama Chords & Tabs

 

Glamodrama Chords & Tabs

Verdena Chords & Tabs

Version: 1 Type: Tab 0 ratings
1 star 2 stars 3 stars 4 stars 5 stars
comments

Glamodrama Tab

     
VERDENA - GLAMODRAMA

GUITAR TAB

Accordatura 1/2 tono sotto

Intro/Verso:
Eb|-----------------|-----------------|----------------|------------|
Bb|-----------------|-----4------3----|-1p0---0------1-|---3--------|
Gb|-----9------5----|---0------0------|------------0---|------------|
Db|-----------------|-----------------|----------------|------------|
Ab|---7------7------|-3------3--------|----------------|------------|
Eb|-0------0--------|-----------------|-----3----3-----|-3----------|

Il legato sulla 2a corda all'inizio della 3a battuta potete anche non farlo, infatti Alberto
nella versione dal vivo non lo fa.

Ultima volta:
Eb|-----------------|-----------------|----------------|----------0-0-0-|
Bb|-----------------|-----4------3----|-1p0---0------1-|--0-1--3--0-1-3-|
Gb|-----9------5----|---0------0------|------------0---|--0-0--0--0-0-0-|
Db|-----------------|-----------------|----------------|--0-0--0--0-0-0-|
Ab|---7------7------|-3------3--------|----------------|----------------|
Eb|-0------0--------|-----------------|-----3----3-----|----------------|

Chorus (distorto):
Eb|--------------------|-------------------|-----------------|-----------------|
Bb|-----4b--------3b---|-----4b--------3b--|-----------------|-----------------|
Gb|-5-5-------4-4------|-5-5-------4-4-----|-4-4-4-4-4-4-4-4-|-4-4-4-4-4-4-4-4-|
Db|-5-5-------4-4------|-5-5-------4-4-----|-5-5-5-5-5-5-5-5-|-5-5-5-5-5-5-5-5-|x 2
Ab|-3-3-------2-2------|-3-3-------2-2-----|-5-5-5-5-5-5-5-5-|-5-5-5-5-5-5-5-5-|
Eb|--------------------|-------------------|-3-3-3-3-3-3-3-3-|-3-3-3-3-3-3-3-3-|

Nelle ultime 2 battute il suono non è molto chiaro, quindi non penso siano esattamente così
come le ho scritte...l'accordo cmq è quello (SOL con il barrè) 

Assolo (distorto):
Eb|------------------|---------------------|------------------------|-------------------|
Bb|-----7~-7-7h85~--|---------------------|------------------------|-------------------|
Gb|-9-9--------------|-------8~-8-8h107~--|-5(4)----2-2h4-4-4p2~--|-----2-2h4-4-4p2~--|
Db|-9-9--------------|-10-10---------------|------5-5---------------|-5-5---------------|
Ab|-7-7--------------|-10-10---------------|------5-5---------------|-5-5---------------|
Eb|------------------|-8--8----------------|------3-3---------------|-3-3---------------|
[ Tab from: http://www.guitartabs.cc/tabs/v/verdena/glamodrama_tab.html ]
Eb|-------------------|---------------------|------------------------|-------------------|
Bb|-----7~-7-7h8/10~--|-----------------8~--|------------------------|-------------------|
Gb|-9-9---------------|-------8~-8-8h10-----|-5(4)----2-2h4-4-4p2~--|-----2-2h4-4-4p2~--|
Db|-9-9---------------|-10-10---------------|------5-5---------------|-5-5---------------|
Ab|-7-7---------------|-10-10---------------|------5-5---------------|-5-5---------------|
Eb|-------------------|-8--8----------------|------3-3---------------|-3-3---------------|


Coda:
Eb|----------------------------------|------------------------------------|
Bb|--------3-------3-------3-------3-|--------3-------3-------3-------3---|
Gb|----0-------0-------0-------0-----|----0-------0-------0-------0-------|x4
Db|----------------------------------|------------------------------------|
Ab|--1---1---1---1---1---1---1---1---|--2---2---2---2---2---2---2---2-----|
Eb|----------------------------------|------------------------------------|

Eb|---------------------------------|----------------------------------|     
Bb|--4----4-------4-------4-------4-|--------3-------3-------3-------3-|     
Gb|---0--------0-------0-------0----|----0-------0-------0-------0-----|       
Db|---------------------------------|----------------------------------|        
Ab|-----3---3---3---3---3---3---3---|--1---1---1---1---1---1---1---1---|       
Eb|---------------------------------|----------------------------------|       
												                                              |
Eb|----------------------------------|-----------------------------------|     
Bb|--------3-------3-------3-------3-|-------3-------3-------3-------3---|      
Gb|----0-------0-------0-------0-----|---0-------0-------0-------0-------|      
Db|----------------------------------|-----------------------------------|    |fino alla fine
Ab|--2---2---2---2---2---2---2---2---|-1---1---1---1---1---1---1---1-----|      
Eb|----------------------------------|-----------------------------------|      
												                                              |
Eb|----------------------------------|                                        
Bb|--------3-------3-------3-------3-|                                        
Gb|----0-------0-------0-------0-----|                                        
Db|----------------------------------|                                        
Ab|--1---1---1---1---1---1---1---1---|                                       
Eb|----------------------------------|                                       

Il finale l'ho preso dalla tab di Paolo Nicotra che ringrazio.


Per commenti o correzioni la mia mail è fleafly_@libero.it


Comments