Verdena - Glamodrama Chords & Tabs

 

Glamodrama Chords & Tabs

Verdena Chords & Tabs

Version: 1 Type: Bass Tab 0 ratings
1 star 2 stars 3 stars 4 stars 5 stars
comments

Glamodrama Bass Tab

   
VERDENA - GLAMODRAMA

BASS TAB

Accordatura 1/2 tono sotto [Eb Ab Db Gb]

Intro e verso 1 e 2:
1|-----------------|------------------|-----------------|-----------------|
2|-----------------|------------------|-----------------|-----------------|
3|-7-7-7---7-7-7---|------------------|-----------------|-----------------|
4|-----------------|-10p8-8-8---8-8-8-|-3-3-3---3-3-3---|-3-3-3---3-3-3---|

Ultima volta verso 1 e 2:
1|-----------------|------------------|-----------------|-----------------|
2|-----------------|------------------|-----------------|-----------------|
3|-7-7-7---7-7-7---|------------------|-5-5-5-5-5-5-5-5-|-5-5-5-5-5-5-5-5-|
4|-----------------|-10p8-8-8---8-8-8-|-3-3-3-3-3-3-3-3-|-3-3-3-3-3-3-3-3-|

Chorus (distorto):
1|-----------------|-----------------|-----------------|-----------------|
2|-----------------|-----------------|-----------------|-----------------|
3|-3-3-3---2-2-2---|-3-3-3---2-2-2---|-----------------|-----------------|(x2)
4|-----------------|-----------------|-3-3-3-3-3-3-3-3-|-5-5-5-5-5-5-5-5-|
[ Tab from: http://www.guitartabs.cc/tabs/v/verdena/glamodrama_btab.html ]
Verso 3:
1|-----------------|------------------|----------------|-----------------|
2|-----------------|------------------|-----5----------|------5----------|
3|-7-7-7---7-7-7---|------------------|----------------|-----------------|
4|-----------------|-10p8-8-8---8-8-8-|-3------3-3-3---|-33------3-3-3---|

1|-----------------|------------------|-----------------|-----------------|
2|-----------------|------------------|-----------------|-----------------|
3|-7-7-7---7-7-7---|------------------|-5-5-5-5-5-5-5-5-|-5-5-5-5-5-5-5-5-|
4|-----------------|-10p8-8-8---8-8-8-|-3-3-3-3-3-3-3-3-|-3-3-3-3-3-3-3-3-|

poi pausa, poi a 3:39:
1|------------------|
2|------------------|
3|-222-2-2----------|(x 3)
4|------------------|

Poi inizia la coda:
1|-----------------|-----------------|-----------------|-----------------|-----------------|
2|-----------------|-----------------|-----------------|-----------------|-----------------|
3|-----------------|-----------------|-----------------|-----------------|-----------------|etc etc
4|-8-8-8-8-8-8-8-8-|-6-6-6-6-6-6-6-6-|-7-7-7-7-7-7-7-7-|-6-6-6-6-6-6-6-6-|-7-7-7-7-7-7-7-7-|

Ripetere fino a 5:27, poi la parte si calma:
1|--------------|--------------|
2|--------------|--------------|
3|--------------|--------------|
4|-6/77---------|-766---------|

Ripetere fino a 5:51, poi fino alla fine è solo più organo e batteria.


Per commenti o correzioni la mia mail è fleafly_@libero.it
Comments