Verdena - Corteccia (nell'up-nea) Chords & Tabs

 

Corteccia (nell'up-nea) Chords & Tabs

Verdena Chords & Tabs

Version: 1 Type: Bass Tab 0 ratings
1 star 2 stars 3 stars 4 stars 5 stars
comments

Corteccia (nell'up-nea) Bass Tab

VERDENA - CORTECCIA (NELL'UP-NEA)

BASS TAB

Strofa/rit.
Gb|---------------|-----------------|----------------|----------------|
Db|---------------|-----------------|----------------|----------------|
Ab|--------0------|---------1-------|-0--------------|-0--------------|
Eb|-0-------------|-1---------------|---------0------|---------0------|
[ Tab from: http://www.guitartabs.cc/tabs/v/verdena/corteccia_nellup_nea_btab.html ]
Gb|---------------|-----------------|----------------|----------------|
Db|---------------|-----------------|----------------|----------------|
Ab|---------------|-1-------1-------|-0--------------|-0--------------|
Eb|-3------1------|-----------------|---------0------|---------0------|


Parte finale:
Gb|----------------------------------------|
Db|----------0--2--0-----------------------|
Ab|-0--2--3-----------3--0-----------------|
Eb|---------------------------------0---0--|




SE AFFONDO NELL'UP-NEA NON PIOVE PIĆ¹


fleafly_@libero.it (as always)
Comments