Verdena - 40 Secondi Di Niente Chords & Tabs

 

40 Secondi Di Niente Chords & Tabs

Verdena Chords & Tabs

Version: 1 Type: Tab 0 ratings
1 star 2 stars 3 stars 4 stars 5 stars
comments

40 Secondi Di Niente Tab

   
VERDENA - 40 SECONDI DI NIENTE

Accordare in Db Ab Db Gb Ab Eb


Intro (molto veloce, con delay e overdrive):
Eb|--------------------------------|
Ab|-x/12-12-12-12-12---12-12-12-12-|
Gb|--------------------------------|x 4
Db|--------------------------------|
Ab|--------------------------------|
Db|--------------------------------|

Eb|---------------------------|-------------------------|-------------------------|-------------------------|-----------------------|
Ab|-x/12-12-12-12-12-12-12-12-|-12-12-12-12-14-14-14-14-|-11-11-11-11-11-11-11-11-|-11-11-11-11-12-12-12-12-|-11-11-11-11-12-12-9-9-|
Gb|---------------------------|-------------------------|-------------------------|-------------------------|-----------------------|
Db|---------------------------|-------------------------|-------------------------|-------------------------|-----------------------|
Ab|---------------------------|-------------------------|-------------------------|-------------------------|-----------------------|
Db|---------------------------|-------------------------|-------------------------|-------------------------|-----------------------|


Eb|-------------------------|-------------------------|
Ab|-11-11-11-11-11-11-11-11-|-12-12-12-12-14-14-14-14-|
Gb|-------------------------|-------------------------|
Db|-------------------------|-------------------------|
Ab|-------------------------|-------------------------|
Db|-------------------------|-------------------------|

in tutta questa parte ogni nota che ho scritto va pizzicata velocemente 2 volte.

(da qui in poi pulito):
Eb|-----------------------------------|
Ab|-----5--------7--------9--------7--|
Gb|-----------------------------------|
Db|-----------------------------------|
Ab|-5-5------7-7------9-9------7-7----|
Db|-----------------------------------|

Verso (x2):
Eb|-----------------------------------|
Ab|-----5--------7--------9--------7--|
Gb|-----------------------------------|x 2
Db|-----------------------------------|
Ab|-5-5------7-7------9-9------7-7----|
Db|-----------------------------------|
[ Tab from: http://www.guitartabs.cc/tabs/v/verdena/40_secondi_di_niente_tab.html ]
Eb|-----------------------------------|----------------------------------------|
Ab|-----9--------9--------9--------9--|------14--------14--------14--------14--|
Gb|-----------------------------------|----------------------------------------|
Db|-----------------------------------|-14-14-----14-14-----12-12-----12-12----|
Ab|-9-9------9-9------9-9------9-9----|----------------------------------------|
Db|-----------------------------------|----------------------------------------|

Chorus (distorto):
Eb|-----------------|-----------------|-----------------|-----------------|
Ab|-0-0-0-0-0-0-0-0-|-0-0-0-0-0-0-0-0-|-----------------|-----------------|
Gb|-2-2-2-2-2-2-2-2-|-2-2-2-2-2-2-2-2-|-4-4-4-4-4-4-4-4-|-4-4-4-4-4-4-----|
Db|-----------------|-----------------|-----------------|-------------2---|
Ab|-0-0-0-0-0-0-0-0-|-0-0-0-0-0-0-0-0-|-2-2-2-2-2-2-2-2-|-2-2-2-2-2-2-0---|
Db|-----------------|-----------------|-----------------|-------------0---|

poi:
Eb|---------------------|
Ab|-x/12-12-12-12-12x--|
Gb|---------------------|
Db|---------------------|
Ab|---------------------|
Db|---------------------|

Un'altra volta verse e chorus, poi:
Eb|-------------------------------------------------------------------------------------------------------------------------------------|
Ab|--5--------7------------3--5----9---7---7-----11-11-11-11-11-14-14-11-11-11-11-11-12-12-11-11-11-11-11-14-14-12-12-12-12-12-12-12-12-|
Gb|-------------------------------------------------------------------------------------------------------------------------------------|
Db|-------------------------------------------------------------------------------------------------------------------------------------|
Ab|-------------------------------------------------------------------------------------------------------------------------------------|
Db|-------------------------------------------------------------------------------------------------------------------------------------|
 "...topi blu ballano sull'oceano, nulla è più vero...


Poi fa 4 volte la prima parte dell'intro, quindi il verso 1 volta sola, poi 2 volte la seconda parte dell'intro

Ed infine il finale:
Eb|---------------------|
Ab|-3---5----5---3------|
Gb|-0---0----0---0------|
Db|---------------------|
Ab|---------------------|
Db|---------------------|
"...niente...niente..."

Ripetere x circa 40 secondi (40 secondi di "niente" appunto!!!)



Per commenti o correzioni la mia mail è fleafly_@libero.it


Comments