Verdena - 40 Secondi Di Niente Chords & Tabs

 

40 Secondi Di Niente Chords & Tabs

Verdena Chords & Tabs

Version: 1 Type: Bass Tab 1 rating
1 star 2 stars 3 stars 4 stars 5 stars
comments

40 Secondi Di Niente Bass Tab

   
VERDENA - 40 SECONDI DI NIENTE

BASS TAB

Accordatura 1/2 tono sotto [Eb Ab Db Gb]

Intro (dopo l'intro di chitarra):
1|-----------------|-----------------|-----------------|-----------------|-----------------|
2|-----------------|-----------------|-----------------|-----------------|-----------------|
3|-----------------|-----------------|-----------------|-----------------|-----------------|
4|-5-5-5-5-5-5-5-5-|-5-5-5-5/7-7-7-7-|-4-4-4-4-4-4-4-4-|-4-4-4-4/5-5-5-5-|-4-4-4-4/5-52-2-|

1|-----------------|-----------------|
2|-----------------|-----------------|
3|-----------------|-----------------|
4|-5-5-5-5-5-5-5-5-|-5-5-5-5/7-7-7-7-|

(da qui in poi pulito)
1|---------------------------------|
2|---------------------------------|
3|-0-0-0---0-0-0---0-0-0---0-0-0---|
4|---------------------------------|

Verse (x 2):
1|---------------------------------|
2|---------------------------------|
3|-0-0-0---0-0-0---0-0-0---0-0-0---|x2
4|---------------------------------|
[ Tab from: http://www.guitartabs.cc/tabs/v/verdena/40_secondi_di_niente_btab.html ]
1|-------------------------------|-------------------------------------------|
2|-------------------------------|-------------------------------------------|
3|-9-9-9---9-9-9---9-9-9---9-9-9-|-14-14-14---14-14-14---12-12-12---12-12-12-|
4|-------------------------------|-------------------------------------------|


Chorus:
1|-----------------|-----------------|-----------------|-----------------|
2|-----------------|-----------------|-----------------|-----------------|
3|-----------------|-----------------|-----------------|-----------------|
4|-5-5-5-5-5-5-5-5-|-5-5-5-5-5-5-5-5-|-7-7-7-7-7-7-7-7-|-7-7-7-7-7---5---|

Bridge:

"...topi blu ballano sull'oceano..."
1|-----------------------------|
2|-12-12-12-12-12-12-12-12-etc-|
3|-----------------------------|
4|-----------------------------|

Poi di nuovo il verso fatto però una volta sola

A 3:15 attacca di nuovo il riff iniziale, ripetuto fino a che non inizia l'outro:

Outro:
1|-----------------------------|
2|-----------------------------|ripetere finchè
3|----0---2---------2---0------|il basso non smette
4|-----------------------------|
  "...niente...  ...niente..."


Per commenti o correzioni la mia mail è fleafly_@libero.it


Comments