Ventures - Walk Dont Run Chords & Tabs

 

Walk Dont Run Chords & Tabs

Ventures Chords & Tabs

Version: 7 Type: Tab 0 ratings
1 star 2 stars 3 stars 4 stars 5 stars
comments

Walk Dont Run Tab

standard tuning
play twice
[ Tab from: http://www.guitartabs.cc/tabs/v/ventures/walk_dont_run_tab_ver_7.html ]
---------------------------------------------------------------------|
--------------------1------------------------------------------------|
---2------------0-2-----2-------------0-2-0--------------------------|
-2--------0-2-3-------2---------0-2-3-------0-2-2-1-2-0-2-3-2-0---0--|
-----0-2-3----------------0-2-3---------------------------------3--3-|
---------------------------------------------------------------------|
then this

---------------------|
-------------------1-|
----------------0-2--|
-----------0-2-3-----|
-----0-2-3-----------|
-0-3-----------------|
Comments