Ventures - Walk Dont Run Chords & Tabs

 

Walk Dont Run Chords & Tabs

Ventures Chords & Tabs

Version: 3 Type: Tab 0 ratings
1 star 2 stars 3 stars 4 stars 5 stars
comments

Walk Dont Run Tab

-------------------------------------------------------------------
-------------------1-0--------------------------------------------
--2------------0 2-----------2----------02-----------------------------
-2--------023---------------2-------023---03--2-0-1-2--0-2-3-2-3-2-----
------023-----------------------023--------------------------------0-
---------------------------------------------------------------------3


--------------------------------
---------------------------------
-------------------------------
--------023--2b-2b-2b----------------
---023-----------------------------
-3------------------------------

[ Tab from: http://www.guitartabs.cc/tabs/v/ventures/walk_dont_run_tab_ver_3.html ]
Comments