Ventures - Secret Agent Man Chords & Tabs

 

Secret Agent Man Chords & Tabs

Ventures Chords & Tabs

Version: 1 Type: Tab 3 ratings
1 star 2 stars 3 stars 4 stars 5 stars
comments

Secret Agent Man Tab

Song: Secret Agent Man
Band: The Ventures
Tabbed by: SpRiNgWaFfLe [springwaffle@comcast.net]

Intro
e---0---0---0-----0---0---0-
b-0---1---1---1h2---1---1---
g---------------------------
d--------------------------- x4
a---------------------------
e---------------------------

Verse
e-----------------------------0-----0-0-
b-----------------------------0-0-3-----
g-----0-4-2-2p0h2p0-----0---------------
d-2-2---------------2-2---2-------------
a---------------------------------------
e---------------------------------------

e------------------------------------------------
b-----------------3---4--------3---5-5-5p3-------
g-----0-2p0-4-4-4---4---4----4---4---------4p0h4-
d-2-2--------------------------------------------
a------------------------------------------------
e------------------------------------------------
[ Tab from: http://www.guitartabs.cc/tabs/v/ventures/secret_agent_man_tab.html ]
e------------------------------------------------------------
b--------------------3---------------------------------------
g-2p0h2-2p0h2p0----4---2p0-2-2---------0-4-2-2p0-2-2-----0---
d---------------2--------------2p0-2-2---------------2-2---2-
a------------------------------------------------------------
e------------------------------------------------------------

Chorus
e---------2-0------0--
b----3--------3-------
g-/4------------------
d--------------------- x2
a---------------------
e---------------------
  Se-cret A - gent Man

e----------------------------------------------
b----------------------------------------------
g-/4-2p0h2-2p0h2-2p0h2-2p0h2p0---------0-2p0/4-  play both riffs again    
d------------------------------2p0-2-2---------  and then play the first
a----------------------------------------------  one once
e----------------------------------------------

Repeat the whole thing again. Second time only play the intro twice.
Fade out playing intro or play it again as many times as you want.
Comments