Ventures - Rap City Chords & Tabs

 

Rap City Chords & Tabs

Ventures Chords & Tabs

Version: 1 Type: Tab 0 ratings
1 star 2 stars 3 stars 4 stars 5 stars
comments

Rap City Tab

   
Rap City - The Ventures
Tabbed by springwaffle

e---------------------------------
b---------------------------------
g---------------------------------
d---------------------------------
a--------------------------------- x4
e-3-3-3-3-2-2-2-2-1-1-1-1-0-0-0-0-

e-0~~~0-3---0-----0h2p0---------0----------------------
b-0~~~--------4-----------1---3---0---1-0--------------
g-0~~~------------------------------------2-0----0-----
d-2~~~----------------------------------------4----4-2-
a-2~~~-------------------------------------------------
e-0~~~-------------------------------------------------

e-0~~~0-3/7---3-2---3-5-3-------0----------------------------------------
b-0~~~----------------------1-3----0-1-3----0-1------0--1-0--------------
g-0~~~------------------------------------2------0-2--------2-0----0-----
d-2~~~----------------------------------------------------------4----4-2-
a-2~~~-------------------------------------------------------------------
e-0~~~-------------------------------------------------------------------
[ Tab from: http://www.guitartabs.cc/tabs/v/ventures/rap_city_tab.html ]
e|------------------------------------------------------
b|*-----------------------------------------------------
g|--------0---------------------------------------------
d|------2-----2-1---2h4p2-------0h2---------------------
a|*-2-----------------------3------2---3-2-0------------
e|-------------------------------------------3-2--3-2-0-
    ^   ^ ^   ^ ^       ^   ^      ^   
e-----------------------------------------------------------------------
b--------0--------------------------------------------------------------
g------0-----0-----0-2-0------------------------------------------------
d----2---------4-------------0-2------0---------------------------------
a-2------------------------3------2-3----0-2-3----0-2--3-2-0------------
e-----------------------------------------------3------------3-2--3-2-0-
  ^  ^ ^ ^   ^ ^   ^ ^ ^ 
e-7---8---7-----------0-0-5-5-7-7-5----5---7---5---------------3-3-5-5-3-
b------------------------------------------------------0-0-3-3-----------
g-----------------5-5------------------------------0-0-------------------
d-------------7-7--------------------------------------------------------
a------------------------------------------------------------------------
e------------------------------------------------------------------------

e-2---5---3---------------0-0-2-2-0---7----7---7---7--|
b---------------------0-0----------------------------*|
g-----------------0-0------------------------0--------|
d-------------2-2------------------------7-------4----|
a----------------------------------------------------*|
e-----------------------------------------------------|

e-0~~~0-3---0-----0h2p0---------0----------------------
b-0~~~--------4-----------1---3---0---1-0--------------
g-0~~~------------------------------------2-0----0-----
d-2~~~----------------------------------------4----4-2-
a-2~~~-------------------------------------------------
e-0~~~-------------------------------------------------

e-0~~~0-3/7---3-2---3-5-3-------0------------------------------------
b-0~~~----------------------1-3----0-1-3----0-1------0--1-0----------
g-0~~~------------------------------------2------0-2--------2-0----0-
d-2~~~----------------------------------------------------------4----
a-2~~~---------------------------------------------------------------
e-0~~~---------------------------------------------------------------
              x3
e|--------------|-0~~~~
b|*------------*|-0~~~~
g|--------------|-0~~~~
d|--------------|-2~~~~
a|*------------*|-2~~~~
e|--3--2--1--0--|-0~~~~

Key:
~ = vibrato (use whammy bar)
^ = tremlo picking (very staccato and more times than show)

Corrections/comments/etc. can be sent to: springwaffle@comcast.net
Comments