Ventures - Pipeline Chords & Tabs

 

Pipeline Chords & Tabs

Ventures Chords & Tabs

Version: 2 Type: Tab 2 ratings
1 star 2 stars 3 stars 4 stars 5 stars
comments

Pipeline Tab

   
Pipeline - The Ventures
Tabbed by springwaffle

          Em
e------|-------------------|------------------------------------------
b------|*-----------------*|------------------------------------------
g------|-------------------|------------------------------------------
d------|-------------------|----0--2--0-2-4-2-0-2--4--2-4--2--0-2-0---
a------|*---2---2---2---2-*|-2--------------------------------------2-
e-19\0-|--0---3---0---3----|------------------------------------------

                Am
e--------7-----------------------------------------------------8--12-10-8-
b-----8----10-8---------------------------------------------10------------
g---9--------------0--2--0-2-4-2-0-2--4--2-4--2--0-2-0----9---------------
d-9-------------2--------------------------------------2------------------
a-------------------------------------------------------------------------
e-------------------------------------------------------------------------
[ Tab from: http://www.guitartabs.cc/tabs/v/ventures/pipeline_tab_ver_2.html ]
  B          C          B          C          B
e-----------------------------------------------------------------
b-----------------------------------------------------------------
g-----------------------------------------------------------------
d-4-444-4-44-5-555-5-55-4-444-4-44-5-555-5-55-4---4--4--4---4--4--
a-2-222-2-22-3-333-3-33-2-222-2-22-3-333-3-33-2-0-2-020-2-0-2-020-
e-----------------------------------------------------------------
  
  Am________  Am_________         G                   F                   G
 | 1 & 3     | 2
e-----------|---------------0---------------------------------------------------
b-----------|-1----------1----3-1-0----------0--3-1-0---------------1-0---0-----
g-----------|---2-2--2-2------------0-0--0-0----------2----------2------2---0-0-
d-2---2--2--|-------------------------------------------3-3--3-3----------------
a-0---0--0--|-------------------------------------------------------------------
e---3---3-3-|-------------------------------------------------------------------

               Am                  G                   F                   E
e----------------------------0-----------------------------------------------
b-----0--3-1-0-1----------1----3-1-0----------0--3-1-0---------------1-0-----
g-0-0------------2-2--2-2------------0-0--0-0----------2----------2------2-1-
d--------------------------------------------------------3-3--3-3------------
a----------------------------------------------------------------------------
e----------------------------------------------------------------------------

First time that repeated part is played 8 times the second and
third times only 6. The slide is very staccato. Hit all the notes
from 19 to 0 as fast as you can. Obviously after you play the 1
then you repeat from the beginning, then instead of playing the
1 & 3, you skip and play the 2 then repeat again playing the 3 and
end like this:

     Em
e----0~~~~~~~
b----0~~~~~~~
g----0~~~~~~~
d----2~~~~~~~
a----2~~~~~~~
E-19/0~~~~~~~

I'm sure you'll figure it out. If you do have questions though
send them to: springwaffle@comcast.net
Comments