Ventures - Pipeline Chords & Tabs

 

Pipeline Chords & Tabs

Ventures Chords & Tabs

Version: 1 Type: Tab 1 rating
1 star 2 stars 3 stars 4 stars 5 stars
comments

Pipeline Tab

Guitar 1:
E-------------------------------------------------------------------------------
B-------------------------------------------------------------------------------
G-------------------------------------------------------------------------------
D-------------------------------------------------------------------------------
A--2-2-2-2-2-2-2-2----------------------------------------------------------
E-0-2-0-2-0-2-0-2-----------------------------------------------------------

After 4 times through, Guitar 2 comes in with:
E-------------------------------------------------------------------------------
B------------------------------------------------------------------------------- 
G-------------------------------------------------------------------------------
D---0-2-0-2-4-2-0-2-4-2-4-2-0-2-0---------------------------------------
A-2--------------------------------------2-------------------------------------
E--------------------------------------------------------------------------------

Rhythm guitar then goes over to this:
E---------------------------------------------------------------------------------
B---------------------------------------------------------------------------------
G--------------------------------------------------------------------------------
D--2-2-2-2-2-2------------------------------------------------------------------
A-0-2-0-2-0-2-------------------------------------------------------------------
E---------------------------------------------------------------------------------
[ Tab from: http://www.guitartabs.cc/tabs/v/ventures/pipeline_tab.html ]
While the lead guitar goes right into this
E---------------------------------------------------------------------------------
B---------------------------------------------------------------------------------
G---0-2-0-2-4-2-0-2-4-2-4-0-2-0--------------------------------------------------
D-2-----------------------------------2------------------------------------------
A--------------------------------------------------------------------------------
E---------------------------------------------------------------------------------
 


Next, both guitars do this:
E---------------------------------------------------------------------------------
B---------------------------------------------------------------------------------
G--------------------------------------------------------------------------------
D--------------------------------------------------------------------------------
A-2-2-2-2-2-2--3-3-3-3-3-3--2-2-2-2-2-2--3-3-3-3-3-3-----------------------------
E---------------------------------------------------------------------------------

Followed by an A minor chord with guitar 2 coming down on a slide from the 16th on the low E.

On the second time through, after the A minor chord but before the slide, guitar 2 plays:
E-0---------------------3-------------------1-------------------0----------
B-1----------0-2-0----0-----------0-------1-------------------0------------
G-2--2-2-2--------2--0--0-0-0-2--2-0---2--------0-2-0----0----------------- x2
D-2--------------------0--------------------3-3-3-3-------3---2------------
A-0--------------------2--------------------0-------------------2----------
E-0--------------------3---------------------0------------------0----------

After the bridge(above) comes the slide.  
After the slide, play the main riff through once and then bring it out. 
This is my first tab, so I hope it turns out alright.  
Enjoy!! The Crusher

Comments