Ventures - Pipe Line Chords & Tabs

 

Pipe Line Chords & Tabs

Ventures Chords & Tabs

Version: 3 Type: Tab 0 ratings
1 star 2 stars 3 stars 4 stars 5 stars
comments

Pipe Line Tab

Hey this is my first tab so dont get hissy pissy on me if any questions E MAIL me at 
please.
[ Tab from: http://www.guitartabs.cc/tabs/v/ventures/pipe_line_tab_ver_3.html ]
E-------------------------------------------------------------------|
B-------------------------------------------------------------------|
G-------------------------------------------------------------------|
D-------------------------------------0-2-0-2-4-2-0-2-0-4-2-0-2-0---|
A--------------------2-2-2-2-2-2-2-2-2----------------------------2-|
E-121212121212/--0--3-0-3-0-3-0-3-0-3-------------------------------|
strum really fast and try to palm mute it

E----------------------------|
B----------------------------|
G----------------------------|
D--0-2-0-4-2-0-2-0-4-2-0-2-0-|
A-2--------------------------|
E----------------------------|
Comments