Ventures - Pipe Line Chords & Tabs

 

Pipe Line Chords & Tabs

Ventures Chords & Tabs

Version: 2 Type: Tab 0 ratings
1 star 2 stars 3 stars 4 stars 5 stars
comments

Pipe Line Tab

------------------------------------------------------------------
                        Ventures-pipeline
------------------------------------------------------------------


Back up guitar
--------------------------
-------------------------- Repeat
--------------------------  throughout
--------------------------   the whole
-----2-----2-----2-----2--    song
--0-----3-----0-----3-----

Lead guitar 
---------------------------------------------
---------------------------------------------
---------------------------------------------
---------------------------------------------
---13/12/11/10/9/8/7/6/5/4/3-----------------
---------------------------------------------

Lead guitar
------------------------------------------------------
------------------------------------------------------
------------------------------------------------------
-----0--2--0--2--4--2--0--2--4--2--4--2--0--2--0------
--2-----------------------------------------------2---
------------------------------------------------------

Lead guitar cont.
------------------------------------------------------
------------------------------------------------------
-----0--2--0--2--4--2--0--2--4--2--4--2--0--2--0------
--2-----------------------------------------------2---
------------------------------------------------------
------------------------------------------------------
[ Tab from: http://www.guitartabs.cc/tabs/v/ventures/pipe_line_tab_ver_2.html ]
Lead guitar cont.
----------------------------------------------------------
----------------------------------------------------------
----------------------------------------------------------
---4--4-4--4-4---5--5-5--5-5---4--4-4--4-4---5--5-5--5-5--
---2--2-2--2-2---3--3-3--3-3---2--2-2--2-2---3--3-3--3-3--
----------------------------------------------------------

Lead guitar cont.
---------------------------
---------------------------
--------------------------- Repeat from
---4--4--4--4--4--4--4--4--  the top
---2--0--2--0--2--0--2--0--
---------------------------

Solo
-----------------0------------------------------------------------------------
--1------------1---2-1-0-----------0-2-1-0---------------1-0---0----------0---
-----2-2--2-2-------------0-0--0-0----------2----------2-----2---0-0--0-0-----
----------------------------------------------3-3--3-3------------------------
------------------------------------------------------------------------------
------------------------------------------------------------------------------

Solo cont.
--------------------0----------------------------------------------
-2-1-0-1----------1---2-1-0----------0-2-1-0--------------1-0------
---------2-2--2-2-----------0-0--0-0---------2----------2-----2-1--back to
-----------------------------------------------3-3--3-3------------the main
-------------------------------------------------------------------theme
-------------------------------------------------------------------
Comments