Ventures - Love Goddess Of Venus Chords & Tabs

 

Love Goddess Of Venus Chords & Tabs

Ventures Chords & Tabs

Version: 1 Type: Tab 1 rating
1 star 2 stars 3 stars 4 stars 5 stars
comments

Love Goddess Of Venus Tab

   
Love Goddess of Venus - The Ventures
Tabbed by springwaffle

    A               C#m             Bm              E7
e|---------------|---------------|---------------|---------------|
b|*-------2-----*|*-------5-----*|*-------3-----*|*-------3-----*|
g|------2---2----|------6---6----|------4---4----|------1---1----|
d|----2-------2--|----6-------6--|----4-------4--|----2-------2--|
a|*-0-----------*|*-4-----------*|*-2-----------*|*-------------*|
e|---------------|---------------|---------------|--0------------|

  A      C#m    Bm      E7      A      F#m    Bm      E7
e-0------0----------0-----------0------2----------0--------
b----2------2---3-----3-2--0-------2------2---3-----3-2--0-
g----------------------------------------------------------
d----------------------------------------------------------
a----------------------------------------------------------
e----------------------------------------------------------

  Am        Bm      C#m       Bm      C#m       Bm        A   G   F
e-0-------0---------4----0--4-2-------9-------9-10--7-----9---7---5-
b------2----3--0-----------------3---------9-------------10---8---6-
g-------------------------------------------------------------------
d-------------------------------------------------------------------
a-------------------------------------------------------------------
e-------------------------------------------------------------------
[ Tab from: http://www.guitartabs.cc/tabs/v/ventures/love_goddess_of_venus_tab.html ]
  Bb     Dm     Cm      F6      Bb     Gm     Cm      F7
e----------------------------------------------------------
b----------------------------------------------------------
g--------------------------------------0-------------------
d-3--0---3--0---1---3-1-0-------3--0------0---1---3-1-0----
a--------------------------3-----------------------------3-
e----------------------------------------------------------

  Dm        Cm      Dm        Cm      Dm        Cm      Dm        Cm
e----------------------------------------------------------------------
b-------------------------------------------------------3-------3-4--1-
g-------------------------------------2-------2-0------------2---------
d-3----0--3-1-------3----0--3-1------------3-------1-------------------
a--------------3-----------------3-------------------------------------
e----------------------------------------------------------------------

  Bb  Ab  Gb  E     A      C#m    Bm      E7      A      F#m    Bm      E7
e-------------------0------0----------0-----------0------2----------0--------
b-6---4---2---0--------2------2---3-----3-2--0-------2------2---3-----3-2--0-
g-7---5---3---1--------------------------------------------------------------
d----------------------------------------------------------------------------
a----------------------------------------------------------------------------
e----------------------------------------------------------------------------

  A    C#m  A    C#m
e-5----4----5----4--
b-5----5----5----5--
g-6----6----6----6--
d-------------------
a-------------------
e-------------------

Corrections/comments/etc. can be sent to: springwaffle@comcast.net
Comments