Ventures - Journey To The Stars Chords & Tabs

 

Journey To The Stars Chords & Tabs

Ventures Chords & Tabs

Version: 1 Type: Tab 1 rating
1 star 2 stars 3 stars 4 stars 5 stars
comments

Journey To The Stars Tab

   
Journey to the Stars - The Ventures
Tabbed by springwaffle

e---------------------
b----------------3----
g-2----5----2----2----
d-2----5----2----0----
a-0----3----0---------
e---------------------

e-8-5-8-5- x7
b---------
g---------
d---------
a---------
e---------                                          ______  ______
                                                   | 1     | 2
e|------------------------------------------------|-------|-8-5-8-5- x7
b|*-----------------------------------------------|------*|---------
g|------------------------------------------------|-------|---------
d|----------------------------------------2-0-----|-------|---------
a|*-0-2-3--2-0-2--0---0-----------------2-----3-2-|------*|---------
e|------------------4----0--1--3-1-0--4-----------|-12\0--|---------
    ^ ^ ^  ^ ^ ^  ^ ^ ^  ^  ^  ^ ^ ^  ^ ^ ^ ^ ^ ^     
e|----------------------------------------------------------------------0----------
b|*----0--1--3p1p0-----0--1p0----------------------------------------0-----3--1--0-
g|--2---------------2--------2--1--2---------2-------0---0--------1----------------
d|--------------------------------------2--2---3---3---3---3-2--2------------------
a|*--------------------------------------------------------------------------------
e|---------------------------------------------------------------------------------
  ______  _____
 | 1     | 2
e-------|--------
b------*|-1----2-
g-------|-2----2-
d-------|-2----2-
a------*|-0----0-
e-12\0--|--------
[ Tab from: http://www.guitartabs.cc/tabs/v/ventures/journey_to_the_stars_tab.html ]
e-2----2--2--2---5-4---1-----2----2--2--2---5-4---
b-------3--3--3----------2---------3--3--3--------
g--------2--2--2--------------------2--2--2-------
d-------------------------------------------------
a-------------------------------------------------
e-------------------------------------------------

e-5----5--5--5---8-7---4-----5----5--5--5---8-7---
b-------6--6--6----------5---------6--6--6--------
g--------5--5--5--------------------5--5--5-------
d-------------------------------------------------
a-------------------------------------------------
e-------------------------------------------------

e-8-5-8-5- x7
b---------
g---------
d---------
a---------
e---------

e|----------------------------------------------------------------------0----------
b|*----0--1--3p1p0-----0--1p0----------------------------------------0-----3--1--0-
g|--2---------------2--------2--1--2---------2-------0---0--------1----------------
d|--------------------------------------2--2---3---3---3---3-2--2------------------
a|*--------------------------------------------------------------------------------
e|---------------------------------------------------------------------------------
  ______  _____
 | 1     | 2
e-------|-8-5-8-5- x6
b------*|---------
g-------|---------
d-------|---------
a------*|---------
e-12\0--|---------

e----0~~~~
b----1~~~~
g----2~~~~
d----2~~~~
a-12\0~~~~
e---------

Key:
~ = vibrato (use whammy bar)
^ = played very staccato and more times than show
\ = slide hitting every note from 12 to 0, very staccato as well

Corrections/comments/etc. can be sent to: springwaffle@comcast.net
Comments