Ventures - Jingle Bell Rock Chords & Tabs

 

Jingle Bell Rock Chords & Tabs

Ventures Chords & Tabs

Version: 1 Type: Tab 1 rating
1 star 2 stars 3 stars 4 stars 5 stars
comments

Jingle Bell Rock Tab

Jingle Bell Rock - The Ventures
Tabbed by springwaffle

                x3
e-3---------------|----------------------
b----6------------|----------------------
g-------5b--5-3---|-5b6r5p3------5b6r5p3-
d---------------5-|---------5------------
a-----------------|----------------------
e-----------------|----------------------

e-3-3-2-2-0h2p0------0h2p0------0h2p0------------0----------------------------------
b---------------0--3-------0--3-------1----0-1-3---3---0-1-3---/5-3-5-3-5-3-5-------
g----------------------------------------2-----------2------------------------4-4-4-
d-----------------------------------------------------------------------------------
a-----------------------------------------------------------------------------------
e-----------------------------------------------------------------------------------

e-3-3-3-2-2-2-0h2p0------0h2p0------0h2p0------------0-------------3-0-2-3-5-3-
b-------------------0--3-------0--3-------1----0-1-3---3---0-1-3---------------
g--------------------------------------------2-----------2---------------------
d------------------------------------------------------------------------------
a------------------------------------------------------------------------------
e------------------------------------------------------------------------------

e-3---3/5--3--3---3/5--3--0-3-2-0h2----3---3/5--3--3---3/5--3-
b---5-----------5-------------------0----5-----------5--------
g-------------------------------------------------------------
d-------------------------------------------------------------
a-------------------------------------------------------------
e-------------------------------------------------------------

e-0-5-----0---3p2p0-0------0-3-3-3-2-2-2-0h2p0------0h2p0-----0------3---5-3---
b-----3-3---3---------3--3---------------------0--3-------0-3-----/5---5-----5-
g------------------------------------------------------------------------------
d------------------------------------------------------------------------------
a------------------------------------------------------------------------------
e------------------------------------------------------------------------------
[ Tab from: http://www.guitartabs.cc/tabs/v/ventures/jingle_bell_rock_tab.html ]
e----3---5-3----3-0-2-3-5-3---3----------------5-------------------------------------
b-/5---5-----5-------------------6----------------8----------------------------------
g-----------------------------------5b--5-3----------7b--7-5-----7b8r7p5-----7b8r7p5-
d-------------------------------------------5----------------7-----------7-----------
a------------------------------------------------------------------------------------
e------------------------------------------------------------------------------------

e-5-5-4-4-2h4p2----0-2h4p2----0-2h4p2----------0-2-0-------0------------------------
b---------------2----------2----------3--0-2-3-------0-2-3-----/7-5-7-5-7-5-7-------
g-----------------------------------------------------------------------------6-6-6-
d-----------------------------------------------------------------------------------
a-----------------------------------------------------------------------------------
e-----------------------------------------------------------------------------------

e-5-5-5-4-4-4-2h4p2----0-2h4p2----0-2h4p2----------0-2-0-------0---5---4-5-7-5-
b-------------------2----------2----------3--0-2-3-------0-2-3-------7---------
g------------------------------------------------------------------------------
d------------------------------------------------------------------------------
a------------------------------------------------------------------------------
e------------------------------------------------------------------------------

e-5---5/7--5--5---5/7--5--2-5-4-2h4----5---5/7--5--5---5/7--5-
b---7-----------7-------------------2----7-----------7--------
g-------------------------------------------------------------
d-------------------------------------------------------------
a-------------------------------------------------------------
e-------------------------------------------------------------

e---7-0-0-2-0-5p4p2-2-0--0-2-5-5-5-4-4-4-2h4p2----0-2h4p2---0-2------5---7-5---
b-7--------------------------------------------2----------2-------/7---7-----7-
g------------------------------------------------------------------------------
d------------------------------------------------------------------------------
a------------------------------------------------------------------------------
e------------------------------------------------------------------------------

                                             x3
e----5---7-5-----5---4-5-7-5-|-5---------------|-----
b-/7---7-----7-----7---------|----8------------|-----
g----------------------------|-------7b--7-5---|-----
d----------------------------|---------------7-|-7-7-
a----------------------------|-----------------|-7-7-
e----------------------------|-----------------|-5-5-

Corrections/comments/etc. can be sent to: springwaffle@comcast.net
Comments