Venturers - Wipe Out Chords & Tabs

 

Wipe Out Chords & Tabs

Venturers Chords & Tabs

Version: 1 Type: Bass Tab 0 ratings
1 star 2 stars 3 stars 4 stars 5 stars
comments

Wipe Out Bass Tab

Wipe Out
By: The Venturers

g0-3-4-5-5-5-3-0-0-3-4-5-5-5-3-0---------------------------------
d--------------------------------0-3-4-5-5-5-3-0-0-3-4-5-5-5-3-0-
a----------------------------------------------------------------
e----------------------------------------------------------------
[ Tab from: http://www.guitartabs.cc/tabs/v/venturers/wipe_out_btab.html ]
g3-5-6-7-7-7-5-3-0-3-4-5-5-5-3-0---------------------------------
d--------------------------------0-3-4-5-5-5-3-0-3-3-3-0---------
a----------------------------------------------------------------
e----------------------------------------------------------------

Don't complain.  If you've got a brain you can at least go with 
that and figure out the right version.
Transcribed by Nathan Spank, the famous bassist for Creepshow!!!
!@#$%^&*()_+{}|[]\++++++------**********/////////,,,,,,,,.........//
///////'''''''';;;;;;::::::::..........--------=======




Comments