Venturers - Walk Dont Run Chorus Chords & Tabs

 

Walk Dont Run Chorus Chords & Tabs

Venturers Chords & Tabs

Version: 1 Type: Tab 0 ratings
1 star 2 stars 3 stars 4 stars 5 stars
comments

Walk Dont Run Chorus Tab

Chorus:
[ Tab from: http://www.guitartabs.cc/tabs/v/venturers/walk_dont_run_chorus_tab.html ]
e---------------------------------------------------------------------
b---------------------------------------------------------------------
g---2-------------0-2-5-4-2-------------0-2-0-------------------------
d-2---------0-2-3-----------------0-2-3-------3-2-2-0-2-0-2-3-2-0-----
a-----0-2-3-----------------0-2-3-------------------------------------
e---------------------------------------------------------------------

e---------------------------------------------------------------------
b---------------------------------------------------------------------
g---------------------------------------------------------------------
d---0-0-0---0-0-0-----------------------------------------------------
a-3-------3-------3---------------------------------------------------
e--------------------14-___________-0-(slide)-------------------------
Comments