Venom - Stand Up Chords & Tabs

 

Stand Up Chords & Tabs

Venom Chords & Tabs

Version: 1 Type: Tab 0 ratings
1 star 2 stars 3 stars 4 stars 5 stars
comments

Stand Up Tab

song: stand up (and be counted)
artist: the black metal gods: V-E-N-O-FUCKING-M 
album: at war with satan
year:1984

h=hammer on
p=pull off
s=slide
pm= palm mute

intro/chorus
---------------------------------------------
---------------------------------------------
---------------------------2-----------------
------------5--------------2-2---------------
--2---2-4-2-5----2---2-4-2-0-2---------------
4---4-------3--4---4---------0---------------

verse (x2)
---------------------------------------------
---------------------------------------------
---------------------------------------------
--------6----------4----------2----------6---
222h4p2-6--222h4p2-4--222h4p2-2--222h4p2-6---
--------4----------2----------0----------4---
[ Tab from: http://www.guitartabs.cc/tabs/v/venom/stand_up_tab.html ]
verse 2 (x2)
---------------------------------------------
---------------------------------------------
8------2-------------------------------------
8-5--4-2-3-----------------------------------
6-5--4-0-3-----------------------------------
--3--2---1-----------------------------------

bridge (x2)
---------------------------------------------
---------------------------------------------
---------------------------------------------
8-8------------------------------------------
6-6-9-11-9-----------------------------------
-----------11--------------------------------

verse 3 (x2)
---------------------------------------------
---------------------------------------------
---------------------------------------------
9-9pm-8s9s8-7--7pm-6s7s6-6--6pm-6s7s6-6--6pm-
9-9pm-8s9s8-7--7pm-6s7s6-6--6pm-6s7s6-6--6pm-
7-7pm-6s7s6-5--5pm-4s5s4-4--4pm-4s5s4-4--4pm-

outro (many times)
---------------------------------------------
---------------------------------------------
---------------------------------------------
6-6-7-2--------------------------------------
6-6-7-2--------------------------------------
4-4-5-0--------------------------------------
Comments