Venom - Sons Of Satan Chords & Tabs

 

Sons Of Satan Chords & Tabs

Venom Chords & Tabs

Version: 1 Type: Tab 0 ratings
1 star 2 stars 3 stars 4 stars 5 stars
comments

Sons Of Satan Tab

   
                    VENOM - SONS OF SATAN
                     From the Album WELCOME TO HELL
                     Copyright 1981 - NEAT RECORDS
                     Version 1.0 - (APR. - 2001)

Transcribed by: BJØRN

For Questions, Comments, Newest Version, or Corrections contact
PANZERKILL@YAHOO.DK

Check Out Death Warp, With More Transcriptions On It:
 http://www.wam.umd.edu/~ekubica

..  - palm mute          /  - slide up to
 \  - slide down to      ~  - vibrato
 h  - hammer on          b  - bend
 p  - pull off            Suffixes for bend
                          ph - pinch harmonic
                           f - full bend    h - half bend
*  - see comment           r - release      t - tap bend
X  - percussion mute       ~ - vibrato bend
@  - slight palm mute     () - ghost note, sustained note

Tune Gtr to C#


Riff A
|---------------------------------------------------|
|---------------------------------------------------|
|----9---9---9-9----------9---9---9-9---------------| 
|----9---9---9-9----------9---9---9-9---------------| 
|----7---7---7-7-----5----7---7---7-7-----5---------|
|--0---0---0-----5h7----0---0---0-----5h7-----------|
[ Tab from: http://www.guitartabs.cc/tabs/v/venom/sons_of_satan_tab.html ]
Riff B
|---------------------------------|
|---------------------------------|
|---------------------------------| 
|--5--7--(7)----5--7--(7)---------| 
|--5--7--(7)----5--7--(7)---------|
|--3--5--(5)----3--5--(5)---------|

Riff C
|------------------------------|
|------------------------------|
|------------------------------|
|--10-9--7---10-9--7-----------| 
|--8--7--5---8--7--5-----------|
|------------------------------|

Riff D
|-------------------------------------|
|-------------------------------------|
|--9--------7--------5--------4-------| 
|--9--------7--------5--------4-------| 
|--7--------5--------3--------2-------|
|-------------------------------------|

Riff E
|--------------------------------------------|
|--------------------------------------------|
|--9-9-9-9--7-7-7-7--5-5-5-5--4-4-4-4--------|
|--9-9-9-9--7-7-7-7--5-5-5-5--4-4-4-4--------|
|--7-7-7-7--5-5-5-5--3-3-3-3--2-2-2-2--------|
|--------------------------------------------|

Riff F
|---------------------------------------|----------------------------|
|---------------------------------------|----------------------------|
|---------------------------------------|----------------------------|
|--9--7--5----7--5--4--444444444444444--|--99999999999999999---------|
|--7--5--3----5--3--2--222222222222222--|--77777777777777777---------|
|---------------------------------------|----------------------------|
Comments