Venom - Resurrection Chords & Tabs

 

Resurrection Chords & Tabs

Venom Chords & Tabs

Version: 1 Type: Tab 0 ratings
1 star 2 stars 3 stars 4 stars 5 stars
comments

Resurrection Tab

   
                     VENOM - RESSURECTION	
                     From the Album RESSURECTION
                     Copyright 2000 SPV RECORDS
                     Version 1.0 - APR. - 2001

Transcribed by: BJØRN

For Questions, Comments, Newest Version, or Corrections contact
PANZERKILL@YAHOO.DK

Check Out Death Warp, With More Transcriptions On It:
 http://www.wam.umd.edu/~ekubica

..  - palm mute          /  - slide up to
 \  - slide down to      ~  - vibrato
 h  - hammer on          b  - bend
 p  - pull off            Suffixes for bend
                          ph - pinch harmonic
                           f - full bend    h - half bend
*  - see comment           r - release      t - tap bend
X  - percussion mute       ~ - vibrato bend
@  - slight palm mute     () - ghost note, sustained note

Tune Gtr to C# (1,5 STEPS DOWN)


Riff A
|--------------------------------------------------------------------|
|--------------------------------------------------------------------|
|--------------------------------------------------------------------| 
|---------5~-------------------5~------------------------------------| 
|---------7~-------------------7~------------------------------------|
|--0-0000----0-0-0-000--0-0000----0-0-0-000--------------------------|
[ Tab from: http://www.guitartabs.cc/tabs/v/venom/resurrection_tab.html ]
Riff B
|--------------------------------------------------------------------|
|--------------------------------------------------------------------|
|--9------------------8----------------9-------------------8---------| 
|--9------------------8----------------9-------------------8---------|
|--7------------------6----------------7-------------------6---------|
|----0-0-0-0-0-0-0-0-0--0-0-0-00-0-0-0---0-0-0-0-0-0-0-0-0-----------|

Riff C
|--------------------------------------------------------------------|
|--------------------------------------------------------------------|
|--9----(9)----8----(8)----9-9----(9)----9--8----(8)-----------------|
|--9----(9)----8----(8)----9-9----(9)----9--8----(8)-----------------| 
|--7----(7)----6----(6)----7-7----(7)----7--6----(6)-----------------|
|--------------------------------------------------------------------|

Riff D
|--------------------------------------------------------------------|
|--------------------------------------------------------------------|
|--9------------------8----------------7-------------------5---------|
|--9------------------8----------------7-------------------5---------| 
|--7------------------6----------------5-------------------3---------|
|----0-0-0-0-0-0-0-0-0--0-0-0-00-0-0-0---0-0-0-0-0-0-0-0-0-----------|

Riff E
|--------------------------------------------------------------------|
|--------------------------------------------------------------------|
|--9----8----7----5----4----3----2-----------------------------------|
|--9----8----7----5----4----3----2----5----4----3----2---------------|
|--7----6----5----3----2----1----0----5----4----3----2---------------|
|-------------------------------------3----2----1----0---------------|
Comments