Venom - In League With Satan Chords & Tabs

 

In League With Satan Chords & Tabs

Venom Chords & Tabs

Version: 1 Type: Bass Tab 0 ratings
1 star 2 stars 3 stars 4 stars 5 stars
comments

In League With Satan Bass Tab

                        Venom - In League With Satan Bass
                                  
				 Tune to C#


    Verse                                                  2x 1.      2.        
||*-------------------------------------------------------*||-|-----|-|-----|---
||*-------------------------------------------------------*||-|-----|-|-----|---
||--0---0-0-0---0-0-0---0-0-3-5---0---0-0-0---0-0-0---0-0--||-|-3-5-|-|-3---|---
||---------------------------------------------------------||-|-----|-|---3-|---
                                                                                

    Pre-chorus                                                       2x         
||*-----------------------------------------------------------------*||---------
||*-----------------------------------------------------------------*||---------
||-------------------------------------------------------------------||---------
||--0---0-0-0---0-0-0---0-0-3-3---0---0-0-0---0-0-0---0-0-3/5-(3)----||---------
                                                                                
[ Tab from: http://www.guitartabs.cc/tabs/v/venom/in_league_with_satan_btab.html ]
                     2x 1.                  2                                   
||*-----------------*||-|-------------------|-----------------|-----------------
||*-----------------*||-|-------------------|-----------------|-----------------
||--------3-3---5-5--||-|---3-5-3---3---3---|-3-5-3---3/5-(3)-|-----------------
||--5-5--------------||-|-------------3-----|-----------------|-----------------
                                                                                

    Chorus                             2x                                       
||*-----------------------------------*||---------------------------------------
||*-----------------------------------*||---------------------------------------
||--0-0-0-0-0-3-5-3---0-0-0-0-0-3---3--||---------------------------------------
||--------------------------------3----||---------------------------------------
                                                                                

    Outro                                                      3x               
||*-----------------------------------------------------------*||---------------
||*-------------------------0-2---------------------------2-0-*||---------------
||--2---2-2-2---2-2-2---2-2-------2---2-2-2---2-2-2---2-2------||---------------
||-------------------------------------------------------------||---------------
Comments