Venom - Buried Alive Chords & Tabs

 

Buried Alive Chords & Tabs

Venom Chords & Tabs

Version: 1 Type: Tab 0 ratings
1 star 2 stars 3 stars 4 stars 5 stars
comments

Buried Alive Tab

   
                    VENOM - BURIED ALIVE
                     From the Album BLACK METAL
                     Copyright 1982 NEAT RECORDS
                     Version 1.0 - (APRIL - 2001)

Transcribed by: BJØRN

For Questions, Comments, Newest Version, or Corrections contact
PANZERKILL@YAHOO.DK

Check Out Death Warp, With More Transcriptions On It:
 http://www.wam.umd.edu/~ekubica

..  - palm mute          /  - slide up to
 \  - slide down to      ~  - vibrato
 h  - hammer on          b  - bend
 p  - pull off            Suffixes for bend
                          ph - pinch harmonic
                           f - full bend    h - half bend
*  - see comment           r - release      t - tap bend
X  - percussion mute       ~ - vibrato bend
@  - slight palm mute     () - ghost note, sustained note

Tune Gtr to C#

[ Tab from: http://www.guitartabs.cc/tabs/v/venom/buried_alive_tab.html ]
Riff A
|--------------------------------|
|--------------------------------|
|------7-----3-------------------|
|----7-----3----5---7---CLEAN----| 
|--5-----1------5---7------------|
|---------------3---5------------|

Riff B
|--------------------------------------------------------------------|
|--------------------------------------------------------------------|
|----------7---3---5---------10---------------8----------------------| 
|--7---5---7---3---5-4TIMES--10-10------------8-8-----------2-times--| 
|--7---5---5---1---3---------8--10------------6-8--------------------|
|--5---3------------------------8--8888-8888----6-6666-6666----------|

Riff C
|----------------------|
|----------------------|
|----------------------|
|--7---5---7--7--7-----| 
|--7---5---7--7--7-----|
|--5---3---5--5--5-----|
Comments