Venom - 1000 Days To Sodom Chords & Tabs

 

1000 Days To Sodom Chords & Tabs

Venom Chords & Tabs

Version: 1 Type: Tab 0 ratings
1 star 2 stars 3 stars 4 stars 5 stars
comments

1000 Days To Sodom Tab

   
                     VENOM - ONE 1000 DAYS TO SODOM
                     From the Album WELCOME TO HELL
                     Copyright 1981 - NEAT RECORDS
                     Version 1.0 - (APR. - 2001)

Transcribed by: BJØRN

For Questions, Comments, Newest Version, or Corrections contact
PANZERKILL@YAHOO.DK

Check Out Death Warp, With More Transcriptions On It:
 http://www.wam.umd.edu/~ekubica

..  - palm mute          /  - slide up to
 \  - slide down to      ~  - vibrato
 h  - hammer on          b  - bend
 p  - pull off            Suffixes for bend
                          ph - pinch harmonic
                           f - full bend    h - half bend
*  - see comment           r - release      t - tap bend
X  - percussion mute       ~ - vibrato bend
@  - slight palm mute     () - ghost note, sustained note

Tune Gtr to C#


Riff A
|------------------------|
|------------------------|
|------------------------| 
|------------------------| 
|--------2-------4/5-----|
|--0-0-0-0-0-0-0-2/3-----|
[ Tab from: http://www.guitartabs.cc/tabs/v/venom/1000_days_to_sodom_tab.html ]
Riff B
|-----------------------------|
|-----------------------------|
|-----------------------------| 
|-----------------------------| 
|--4-4-4-4-4-4-7-7-7-7--------|
|--2-2-2-2-2-2-5-5-5-5--------|

Riff C
|-------------------------------|
|-------------------------------|
|-------------------------------|
|---------7-7------5-5-5-7------| 
|--2-4-5--5-5--2-4-3-3-3-5------|
|--0-2-3-------0-2--------------|

Riff D                                                                    
|------------------------------|
|------------------------------|
|------------------------------| 
|------------------------------| 
|--7-7--5--2--7----------------|
|--5-5--3--0--5-5555-5555------|

Riff E
|---------------------|
|---------------------|
|--5-5----------------|
|--5-5--5--4--7-------|
|--3-3--5--4--7-------|
|-------3--2--5-------|

Riff F
|-----------------------------|
|-----------------------------|
|-----------------------------|
|-----------------------------|
|--2-2--4-4--5-5--55-44-------|
|--0-0--2-2--3-3--33-22-------|
Comments