Vendetta Red - Silhouette Serenade Chords & Tabs

 

Silhouette Serenade Chords & Tabs

Vendetta Red Chords & Tabs

Version: 1 Type: Tab 0 ratings
1 star 2 stars 3 stars 4 stars 5 stars
comments

Silhouette Serenade Tab

-------------------------------------------------------------------------------
			     Silhouette Serenade - Vendetta Red
-------------------------------------------------------------------------------
Tabbed by: unabnormal
Email: darkdragonsky@mindless.com

Tuning: Standard

Sorry if this tab sucks. This is the way I like to play the song, and it sounds right to me.

Here are the tabs for the violin that is played occasionally during the song, more importantly, the intro:
e|-4-4-5-4-2-4----2-2-5-4-2-4---4-4-5-4-2-4----7-7-7--12-12-12-|
B|--5-5-------5----0-0-------5---5-5-------5--7------9---------|
G|-------------------------------------------------------------|
D|-------------------------------------------------------------|
A|-------------------------------------------------------------|
E|-------------------------------------------------------------|

Chords over violin in intro (listen for strumming):
e|----------------------0-|
B|----------------------0-|
G|----6--4------(x2)----1-|
D|-2--6--4--7-----------2-|
A|-2--4--2--7-----------2-|
E|-0--------5-----------0-|


Verse (strum like chords):
e|-----------------------|
B|-5----4----5----4------|
G|-4----4----4----4----4-|
D|-----------------------|
A|-----------------------|
E|-----------------------|
[ Tab from: http://www.guitartabs.cc/tabs/v/vendetta_red/silhouette_serenade_tab.html ]
e|-4---------------5---------------7---5---7--|
B|--5---------------5--------------7---5---7--|
G|---6-----(x4)------6-----(x4)----8---6---8--|
D|----6---------------7------------9---7---9--|
A|--------------------------------------------|
E|--------------------------------------------|

Chorus 1:
e|----------------------0-|
B|----------------------0-|
G|----6--4------(x4)----1-|
D|-2--6--4--7-----------2-|
A|-2--4--2--7-----------2-|
E|-0--------5-----------0-|

Verse 2:
e|-----------------------|
B|-5----4----5----4------|
G|-4----4----4----4----4-|
D|-----------------------|
A|-----------------------|
E|-----------------------|

e|-4---------------5---------------7---5---7--|
B|--5---------------5--------------7---5---7--|
G|---6-----(x4)------6-----(x4)----8---6---8--|
D|----6---------------7------------9---7---9--|
A|--------------------------------------------|
E|--------------------------------------------|


Chorus 2:
e|-------------------|
B|-------------------|
G|----6--4------(x4)-|
D|-2--6--4--7--------|
A|-2--4--2--7--------|
E|-0--------5--------|


Solo:
e|-------------------------------------------------|
B|--5-7-5--5---5-7-5---------------5-7-5--5--------|
G|-6----------6-------5-6-8--(x3)-6-----------4----|
D|-------7----------6-------------------7-----4----|
A|--------------------------------------------2----|
E|-------------------------------------------------|

e|-------------------|
B|-------------------|
G|----6--4------(x2)-|
D|-2--6--4--7--------|
A|-2--4--2--7--------|
E|-0--------5--------|

Chorus 3:
e|-----------------|
B|-----------------|
G|----8--6--4--(x4)|
D|-4--8--6--4------|
A|-4--6--4--2------|
E|-2---------------|

and then end on another F#5.
Comments