Vendetta Red - Shatterday Chords & Tabs

 

Shatterday Chords & Tabs

Vendetta Red Chords & Tabs

Version: 1 Type: Tab 0 ratings
1 star 2 stars 3 stars 4 stars 5 stars
comments

Shatterday Tab

   
-------------------------------------------------------------------------------
			     Shatterday - Vendetta Red
-------------------------------------------------------------------------------
(Visit the Website at www.Vendettared.com)

Tabbed by: Chris Gilli	(Eddie Van Halen Jr)
Email: Ambush09@aol.com

This is pretty much perfect except the lead in the Breakdown.  Enjoy!

Tuning: Standard 

Intro Riff: (Clean)  (Rhythym not indicated)
               ^                 ^           ^                         
e|--x--x-----x-/-x----x--- x-- x-\---x--x--x-\--x--x----x-/-x--------------|
B|--x--x-----x-/-x----x--- x---x-\-- x--x--x-\--x--x----x-/-x--------------|
G|--8--8-----8-/-9----9----9---9-\---8--8--8-\--6--6----6-/-8--------------|
D|--x--x-----x-/-x----x----x---x-\---x--x--x-\--x--x----x-/-x--------------|
A|--6--6-----6-/-7----7----7---7-\---6--6--6-\--4--4----4-/-6--------------|
E|-------------------(0)---------------------------------------------------|
                    

Prechorus: (With lots of distortion , and Vibrato)
e|---------------------------------------------------------------------------|
B|---------------------------------------------------------------------------|
G|---------------------------------------------------------------------------|
D|-- ~9 ---------------------------------------------------------------------|
A|-------- ~9----- ~7---- ~9---- ~7------------------------------------------|
E|-------------------------------------- ~11---------------------------------|
[ Tab from: http://www.guitartabs.cc/tabs/v/vendetta_red/shatterday_tab.html ]
Chorus: (Ryhthym not indicated)      (A)      (B)
e|------------------------------------------|-------------------------------|
B|------------------------------------------|-------------------------------|
G|-------------------------------------4--- |--4----------------------------|
D|--6-6 6---6---x---2--2----x---4-4----4--- |--x----------------------------|
A|--6-6-6---6---x---2--2----x---4-4----2--- |--2----------------------------|
E|--4-4-4---4---x---0--0----x---2-2-------- |-------------------------------|

(2nd time thru, go to ending B and hold the chord)


Breakdown: (Do this over and over; ALL Downstrokes)

Guitar 1:                                    (B)
e|-------------------------------------------|------------------------|       
B|------------------------------------------ |------------------------| 
G|------------------------------------------ |-4-4-4-4-4-4------------|  
D|--- 6-6-6-6-6-6-6-6-6----2-2-2-2-2-2-2-2-2-|-4-4-4-4-4-4----------- |
A|--- 6-6-6-6-6-6-6-6-6----2-2-2-2-2-2-2-2-2-|-2-2-2-2-2-2------------|
E|----4-4-4-4-4-4-4-4-4----0-0-0-0-0-0-0-0-0-|------------------------|

Note: play (B) at "Looseleaf Lullabye"?
Note: You probably strum each chord about 16x, Im not exactly sure.


Guitar 2: (This is one of the lead riffs, but just fool around with it: I havent
figured the whole thing yet)
e|---------------------------------------------------------------------------|
B|---------------------------------------------------------------------------|
G|--13\--11----11--\--9-\- 8-------------------------------------------------|
D|--x-\---x-----x--\--x--\-x-------------------------------------------------|
A|--11-\--9-----9--\--7--\ 6-------------------------------------------------|
E|---------------------------------------------------------------------------|



Intro Riff : 6x
Prechorus: 3x
Chorus: 2x
Intro Riff: 4x   (This time, the intro is slightly Different)
Prechorus: 3x
Chorus: 2x
Breakdown: 2x - on the 3rd time go to B5 Chord
Prechorus: 3x
Chorus: 2x (End on the B5)


Tell me what you think! I would love Corrections (Ambush09@aol.com)


| /  slide up
| \  slide down
| h  hammer-on
| p  pull-off
| ~  vibrato
| +  harmonic
| x  Mute note
Comments