Vendetta Red - Shatterday Chords & Tabs

 

Shatterday Chords & Tabs

Vendetta Red Chords & Tabs

Version: 1 Type: Bass Tab 0 ratings
1 star 2 stars 3 stars 4 stars 5 stars
comments

Shatterday Bass Tab

   
Vendetta Red - Shatterday
by thegreencheetoh

Intro (come in with drums)
G|-----------------|
D|-----------------|
A|-6-6-6-4-4-4-4---|
E|-----------------|

Verse 1 (1x)
G|------------------------------|
D|-------------------------2222-|
A|-2-22-222-2----2-22-222-2-----|
E|-----------0000---------------|
   (1x)
G|--------------------------------|
D|--------------------------------|
A|-2-22-222-2----2-22-222-2-------|
E|-----------0000-----------0--2--|

Chorus 2 (3x)
G|---------------|
D|---------------|
A|-2-222-22----2-|
E|---------0-00--|
   (2x)
G|------------|
D|------------|
A|---------2~-|
E|-4-4--0~----|
[ Tab from: http://www.guitartabs.cc/tabs/v/vendetta_red/shatterday_btab.html ]
Verse 2 (3x)
G|------------------------------|
D|-------------------------2222-|
A|-2-22-222-2----2-22-222-2-----|
E|-----------0000---------------|
    (1x)
G|--------------------------------|
D|--------------------------------|
A|-2-22-222-2----2-22-222-2-------|
E|-----------0000-----------0--2--|

Chorus 2 (3x)
G|---------------|
D|---------------|
A|-2-222-22----2-|
E|---------0-00--|
   
G|------------|
D|------------|
A|---------2~-|
E|-4-4--0~----|

G|------------|
D|------------|
A|------------|
E|-4-4--0~----|

Bridge (3x)
G|-------------------------------|
D|-------------------------------|
A|-------------------------------|
E|-44444444444444-00000000000000-|
    (1x)
G|---------------------------------------------|
D|---------------------------------------------|
A|-22222222222222------------------------------|
E|----------------2222222222222222222222222222-|

Chorus 3   (3x)
G|-------|---------------|
D|-------|---------------|
A|-------|-2-222-22----2-|
E|-2/8\2-|---------0-00--|
   (2x)
G|--------------|
D|--------------|
A|---------2~~~-|
E|-4-4--0~------|
Comments