Vendetta Red - Ps Love The Black Chords & Tabs

 

Ps Love The Black Chords & Tabs

Vendetta Red Chords & Tabs

Version: 1 Type: Bass Tab 0 ratings
1 star 2 stars 3 stars 4 stars 5 stars
comments

Ps Love The Black Bass Tab

   
Band: Vendetta Red
CD: Between the Never and the Now
Song: P.S. Love the Black
Label: Epic
Bassist: Mike Vermillion
Tabbed by: Chris

Once again he has that very metal, thick sound.  You can try with a pick
but i think its just that thick, metal sound of new strings because
he most likely used new strings everyday in the studio.

Intro (Wait a bit)
G|------------------------------------------------------------|
D|------------------------------------------------------------|
A|-----------------------------22-22-222/-77777777-3333-5555--|
E|-77-777-7777\-00000000-33-355-------------------------------|

Verse
G|-----------------------------------------------------------|
D|-----------------------------------------------------------|
A|-----------------------------2-22-222/-77777777-3333-5555--|
E|-7-77-777\-00000000-33-355---------------------------------|

Chorus
G|---------------------------------------|
D|---------------------------------------|
A|---------------------------------------|
E|-00000000-3333-5555-77777777-22222222--|

G|---------------------------------------|
D|---------------------------------------|
A|-----------------------------66666666--|
E|-00000000-3333-5555-77777777-----------|
[ Tab from: http://www.guitartabs.cc/tabs/v/vendetta_red/ps_love_the_black_btab.html ]
G|---------------------------------------|
D|---------------------------------------|
A|---------------------------------------|
E|-00000000-3333-5555-77777777-22222222--|

G|---------------------------------------|
D|---------------------------------------|
A|---------------------------------------|
E|-0-00-000-33333333-55555555------------|

Pause 

Intro x1

Chorus
Verse x a bunch 
Then stop

Bridge/Outro
G|------------------------------------------------|
D|------------------------------------------------|
A|------------------------------------------------|
E|-7777-7777-7777-7777\-00000000000-333333-555555-|

G|------------------------------------------------|
D|------------------------------------------------|
A|-2222-2222-2222-2222/-77777777777-333333-555555-|
E|------------------------------------------------|

Keep repeating that through the back and forth scream part then

G|-----------------------------------------------------|
D|-----------------------------------------------------|
A|-222222222222222222-keep playing and finally-2----2--|
E|-----------------------------------------------------|

Don't take the amount of notes I wrote literally.  I play very fast
and everyone has different playing speeds so just try to get as many notes
in as possible.  Thanks.  Please rate.
Comments