Venaculas - Take Me Away Chords & Tabs

 

Take Me Away Chords & Tabs

Venaculas Chords & Tabs

Version: 1 Type: Tab 0 ratings
1 star 2 stars 3 stars 4 stars 5 stars
comments

Take Me Away Tab

   
www.venaculas.com
So far, I have found no Venaculas tabs on the internet. This is just part of the
intro to "Take Me Away" Im not gonna give you that "this is my first tab" BS, but
Im not 100% sure this is the way its played. Im still trying to figure the rest
of the intro out, so Ill try and get that up soon. 
Sorry if Im wrong with this Venacs!!!

Tuning |C|G|C|F|A|D|

Slight Distortion
|-------------------------------------------------------|
|-------------------------------------------------------|
|-------------------------------------------------------|
|-------------------------------------------------------|
|-------------------------------------------------------|
|-0--0-0-3-2-1-0--\8~-8~--0--0-0-3-2-1-2--2-2-2-1-1-----|
Repeat that with slight variations at the 8th fret
[ Tab from: http://www.guitartabs.cc/tabs/v/venaculas/take_me_away_tab.html ]
|--------------------------------------------------------------------------|
|--------------------------------------------------------------------------|
|--------------------------------------------------------------------------|
|---------------------------10/0--0-0-3-2-1--8--0-0-3-2-1-2--2-2-2-1-1-----|
|--------------2--x-x-x-2---10/0--0-0-3-2-1--8--0-0-3-2-1-2--2-2-2-1-1-----|
|-0--0-0-3-2-1-2--x-x-x-2---10/0--0-0-3-2-1--8--0-0-3-2-1-2--2-2-2-1-1-----|
    Hit heavy distortion here^    ^  Repeat this part twice for the chorus^

Then go..
|----------------------------------------------|
|----------------------------------------------|
|----------------------------------------------|
|-0-0-3-2-1-2--x-x-x-2--2----------------------|
|-0-0-3-2-1-2--x-x-x-2--2----------------------|
|-0-0-3-2-1-2--x-x-x-2--2----------------------|
 After this it is back to the verses

For the verses, play the first part with a slight plam mute.
Comments