Ven Buens Ende - Remembrance Of Things Past Chords & Tabs

 

Remembrance Of Things Past Chords & Tabs

Ven Buens Ende Chords & Tabs

Version: 1 Type: Tab 0 ratings
1 star 2 stars 3 stars 4 stars 5 stars
comments

Remembrance Of Things Past Tab

   
/--------------------------------------------------------------------------\
/ The following is the author's own interpertation of the song, to be used \
/ For private use and studying                                             \
/--------------------------------------------------------------------------\

                      VEN BUENS ENDE - Remembrance of things past

                        From the Album Written in Waters 
                    Copyright 1995 Misanthropy RECORDS

                       Version 1.0 - MARCH 2001

Transcribed by: LOUIS RIEL 

For Questions, Comments, Newest Version, or Corrections contact
       Louis Riel at: riel2102@aei.net




  - pam mute                     /  - slide up to
\  - slide down to                ~  - vibrato
h  - hammer on                    b  - bend
p  - pull off                          Suffixes for bend
ph - pinch harmonic                     f - full bend    h - half bend
*  - see comment                        r - release      t - tap bend
X  - percussion note                    ~ - vibrato bend
@  - slight palm mute             ()  - ghost note, sustained note
"  - tremolo pick until next note



[ Tab from: http://www.guitartabs.cc/tabs/v/ven_buens_ende/remembrance_of_things_past_tab.html ]
Tune to E (E,A,D,G,B,E)
|--------------------------------------------|-----------(0)-----------------------1-1----------------------|
|--------------------------------------------|-----------(0)----------------0------2---2--------------------|
|--------------------0--------------------0--|------------0---------------3---3----3-----3------------------|
|------------------6---6------------------6--|---------------------3------2-----3--3------------------------|
|----7/11--11-8--8-------8----7/11-11-8------|----5/7-7/8--------0--------1-----1--1------------------------|
|--0-----------------------0-----------------|--0------------3/4------0-------------------------------------|
| 
|
|----------------------------------------------------------------------------------------------------------|
|----------------------------------------------------------------------------------------------------------|
|----12-------------------12-------------------------------------------------------------------------------|
|-------14--------13---------14--------13--10--13---14--17-16--14--13--------------------------------------|
|----------14-----12------------14-----12--9---12---13--16-15--13--12--------------------------------------|
|-0-----------12--11---0-----------12--11--8---11---12--15-14--12--11--------------------------------------|
>
|----------------------------------------------------------------------------------------------------------|
|----------------------------------------------------------------------------------------------------------|
|----12-----------11------12-----------11--8--11--12-----15-14-12--11--------------------------------------|
|-------14--------10---------14--------10--7--10--11-----14-13-11--10--------------------------------------|
|----------14-----9-------------14-----9---6--9---10-----13-12-10--9---------------------------------------|
|-0-----------12-------0-----------12----------------------------------------------------------------------|









|------------------------------------------------------------------------------|-7--4-8--7------------------|
|-----------5--5-----------------------------------5--5------------------------|-8--5-9--8------------------|
|-------7---6----6-----------7--5--7-8---------7---5----5-----------7--5--8-10-|-9--6-10-9------------------|
|-----9-----8------8-------9----5--7-8-------9-----7------7-------9----5--8-10-|-10-7-11-10-----------------|
|---9--------------------9------3--5-6-----9--------------------9------3--6-8--|-7--4-8--7------------------|
|-7--------------------7-----------------7--------------------7----------------|-7--4-8--7------------------|
|
| partir du bas		*= let ring
|-7--0-----------------------------------------------------------------------------------------------------|
|-8--0-----------------------------------------------------------------------------------------------------|
|-9--0------------------*--55555-44-*----------------------------------------------------------------------|
|-9--3-----------3333---2-----------3-5-6-6666-5-555-3-----------------------------------------------------|
|-7--3-3333-------------2-----------3------------------3---------------------------------------------------|
|-0--1------1111--------0--------------------------------1--0----------------------------------------------|



Check out Opeth's Domain, the only place to find Opeth tabs:
               http://darkwood.com/opeth/
lwy
Comments