Velvet Underground - What Goes On Chords & Tabs

 

What Goes On Chords & Tabs

Velvet Underground Chords & Tabs

Version: 3 Type: Tab 0 ratings
1 star 2 stars 3 stars 4 stars 5 stars
comments

What Goes On Tab

Scribbles 
"What Goes On" by  Velvet Underground

"what goes on"
Velvet Underground
>From the album, "The Velvet Underground"

tabbed by Patrick Madden
mrwiggles@geocities.com      or
madden@ssc.sas.upenn.edu

Intro:
---------------------------------------------------
---7-7-7---5-5--5-5-5-5-5---7-7-7---5-5--5-5-5-5-5-
---7-7-7---5-5--5-5-5-5-5---7-7-7---5-5--5-5-5-5-5-
---7-7-7---5-5--5-5-5-5-5---7-7-7---5-5--5-5-5-5-5-
---5-5-5---5-5--5-5-5-5-5---5-5-5---5-5--5-5-5-5-5-
---------------------------------------------------

---------------------------------------------------
---7-7-7---5-5--5-5-5-5-5---7-7-7---5-5--5-5-5-5-5-
---7-7-7---5-5--5-5-5-5-5---7-7-7---5-5--5-5-5-5-5-
---7-7-7---5-5--5-5-5-5-5---7-7-7---5-5--5-5-5-5-5-
---5-5-5---5-5--5-5-5-5-5---5-5-5---5-5--5-5-5-5-5-
---------------------------------------------------

[ Tab from: http://www.guitartabs.cc/tabs/v/velvet_underground/what_goes_on_tab_ver_3.html ]
---------------------------------------------------
---------------------------------------------------
---5-5---------------------------------------------
---5-5-----5-5-------------------------------------END INTRO
---3-3-----5-5-------------------------------------
-----------3-3-------------------------------------


Verse: play 2x
---------------------------------------------------
---7-7-7---5-5--5-5-5-5-5-5------------------------
---7-7-7---5-5--5-5-5-5-5-5------------------------
---7-7-7---5-5--5-5-5-5-5-5------------------------
---5-5-5---5-5--5-5-5-5-5-5------------------------
---------------------------------------------------


Chorus: play 2x
-------------------------------------------------------
-----------------------------7-7-7---5--5--5--5-5-5-5-5
-----------------------------7-7-7---5--5--5--5-5-5-5-5
---7--7-7-7-----5-5--5-5-----7-7-7---5--5--5--5-5-5-5-5
---7--7-7-7-----5-5--5-5-----5-5-5---5--5--5--5-5-5-5-5
---5--5-5-5-----3-3--3-3-------------------------------


-------------------------------------------------------
---7-7-7---5--5--5--5-5-5-5-5--------------------------
---7-7-7---5--5--5--5-5-5-5-5--------------------------
---7-7-7---5--5--5--5-5-5-5-5--------------------------
---5-5-5---5--5--5--5-5-5-5-5--------------------------
-------------------------------------------------------
Comments