Velvet Underground - Rocknroll (riff) Chords & Tabs

 

Rocknroll (riff) Chords & Tabs

Velvet Underground Chords & Tabs

Version: 1 Type: Chords 0 ratings
1 star 2 stars 3 stars 4 stars 5 stars
comments

Rocknroll (riff) Chords

   
#----------------------------------PLEASE NOTE---------------------------------#
#This file is the author's own work and represents their interpretation of the #
#song. You may only use this file for private study, scholarship, or research. #
#------------------------------------------------------------------------------##
From: dmsinge@erenj.com (Dave Singer)
Subject: CRD/TAB Rock and Roll-Runaways

This is the same song originally done by the Velvet Underground.
It was done on the Runaways(Joan Jetts' first band) first release
and it features a real cool riff.  The song is in 4/4 and we used
to start it by having the drummer play a steady beat on the cow
bell.  Here is our arrangement:

Rock and Roll -  Runaways(VU)
[ Tab from: http://www.guitartabs.cc/tabs/v/velvet_underground/rocknroll_riff_crd.html ]
riff:
        D                    C
|------|--------------------|----------------------|
|------|----------7\--------|----------5\----------|
|------|-------4--7\--------|-------2--5\----------|
|------|-------4--7\--------|-------2--5\----------|
|-(17)\|-5--7---------------|-3--5-----------------|
|------|--------------------|----------------------|
    4    1  &  2  &  3    4   1  &  2  &   3     4
      G                     D
     |---------------------|----------------------|
     |---------------------|----------7\----------|  B=bend
     |---------------------|-------4--7\----------|  R=release
     |-----------2-B3---R2-|-------4--7\----------|  \=slide down
     |-----2--5------------|-5--7-----------------|
     |--3------------------|----------------------|
        1  &  2  &  3    4   1  &  2  &   3     4
Comments