Velvet Underground - Rock And Roll Runaways Chords & Tabs

 

Rock And Roll Runaways Chords & Tabs

Velvet Underground Chords & Tabs

Version: 1 Type: Chords 0 ratings
1 star 2 stars 3 stars 4 stars 5 stars
comments

Rock And Roll Runaways Chords

   
----------------------------------------------------------------------------
              Velvet Underground - Rock & Roll (Runaways)
----------------------------------------------------------------------------
Tabbed by:Bryan
Email:Zoso9990@hotmail.com

Ok, I can't seem to find accurate chords to this song anywhere, so here
is my attempt. These are just the chords, no strumming pattern or anything.

Tuning: Standard (E A D G B E)

Verse Pattern - C,Bb,F,C

e|--3--------1--------1--------3-------------------------------------------|
B|--5--------3--------1--------5-------------------------------------------|
G|--5--------3--------2--------5-------------------------------------------|
D|--5--------3--------3--------5-------------------------------------------|
A|--3--------1--------3--------3-------------------------------------------|
E|--x--------x--------1--------x-------------------------------------------|

Chorus Pattern = D,F,G,F,C,F
[ Tab from: http://www.guitartabs.cc/tabs/v/velvet_underground/rock_and_roll_runaways_crd.html ]
e|--5----1---------3----1---------3----1--------------------------------|
B|--7----1---------3----1---------5----1--------------------------------|
G|--7----2---------4----2---------5----2--------------------------------|
D|--7----3---------5----3---------5----3--------------------------------|
A|--5----3---------5----3---------3----3--------------------------------|
E|--x----1---------3----1---------x----1--------------------------------|

                    (Repeat the C and F during the "it was alright" part)

Lyrics

Jenny said when she was just five years old
There was nothing happening at all
Every time she puts on a radio
There was a nothiní goiní down at all, not at all
Then one fine morniní she puts on a new york station
You know, she couldnít believe what she heard at all
She started danciní to that fine fine music
You know her life was saved by rock íní roll
Despite all the amputations you know you could just go out
And dance to a rock íní roll station

It was alright
It was alright
Hey baby you know it was alright

Jenny said when she was just by five years old
You know y parents gonna be the death of us all
Two tv sets and two cadillac cars -
Well you know it ainít gonna help me at all
Then one fine morniní she turnss on a new york station
She doesnít believe what she hears at all
Ooh, she started danciní to that fine fine music
You know her life is saved by rock íní roll,
Despite all the computations
You could just dance to a rock íní roll station

And baby it was alright
And it was alright
Hey it was alright
Hey here she comes now!

It was alright
---------------------
| /  slide up
| \  slide down
| h  hammer-on
| p  pull-off
| ~  vibrato
| +  harmonic
| x  Mute note
============================================================================
Comments