Velvet Underground - Im Sticking With You Chords & Tabs

 

Velvet Underground Chords & Tabs

Version: 1 Type: Tab 0 ratings
1 star 2 stars 3 stars 4 stars 5 stars
comments

Im Sticking With You Tab

   
#----------------------------------PLEASE NOTE---------------------------------#
#This file is the author's own work and represents their interpretation of the #
#song. You may only use this file for private study, scholarship, or research. #
#------------------------------------------------------------------------------#

Here is the tab and Chords for that quirky song from Lou Reed. Enjoy. Frankyz84

I`M STICKING WITH YOU    (Velvet Underground,  1970)
[ Tab from: http://www.guitartabs.cc/tabs/v/velvet_underground/im_sticking_with_you_tab.html ]
INTRO
    G
e|----------------------------------------------------------|
b|----------------------------------------------------------|
G|-------------------------------0--------------------------|
D|--0h2--0---------------0--0h2------0h2--0-----------------|
A|-----------2p0-----------------------------2p0------------|
E|----------------2h3-----------------------------2h3--2h3--|

VERSE
   G                 G                 C       D        G 
|-----3-3-----3-3-|-----3-3-----3-3-|----0-0------2-2-|----3--------------|
|-----0-0-----0-0-|-----0-0-----0-0-|----1-1------3-3-|----0--------------|
|-----------------|-----------------|-----------------|--------------REST-|
|-----0-0-----0-0-|-----0-0-----0-0-|----0-0---0--0-0-|----0--------------|
|-----------------|-----------------|--3--------------|--------2----------|
|--3-------3------|--3-------3------|-----------------|--3--------3-------|
Comments