Velvet Underground - Im Sticking With You Intro Chords & Tabs

 

Velvet Underground Chords & Tabs

Version: 1 Type: Tab 0 ratings
1 star 2 stars 3 stars 4 stars 5 stars
comments

Im Sticking With You Intro Tab

   
I'm Sticking with You by Velvet Underground

The title says intro, but it's about half the song.

No capo needed. Enjoy!

(Basic chords are F, C, Bb, Am, E, B, A, D.)

Verse 1:

|---1-1---0-0---1-1----------1-1---0-0---1-1-------|
|---1-1---1-1---1-1----------2-2---1-0---1-1-------|
|---2-2---0-0---2-2----------2-2---0-0---2-2-------|
|-3-----------3------------------------3-----------|
|-------3------------------1-----3-----------------|
|-------------------1------------------------1-----|

I'm sticking with you, 'cause I'm made out of glue.   

|---1-1---0-0---1-1----------1-1---0-0---1-1-------|
|---1-1---1-1---1-1----------2-2---1-0---1-1-------|
|---2-2---0-0---2-2----------2-2---0-0---2-2-------|
|-3-----------3------------------------3-----------|
|-------3------------------1-----3-----------------|
|-------------------1------------------------1-----|

Anything that you might do, I'm gonna do too.


Verse 2:

|---1-1---0-0---1-1----------1-1---0-0---1-1-------|
|---1-1---1-1---1-1----------2-2---1-0---1-1-------|
|---2-2---0-0---2-2----------2-2---0-0---2-2-------|
|-3-----------3------------------------3-----------|
|-------3------------------1-----3-----------------|
|-------------------1------------------------1-----|

You held up a stagecoach in the rain, and I'm doing the same.

|---1-1---0-0---1-1----------1-1---0-0---1-1-------|
|---1-1---1-1---1-1----------2-2---1-0---1-1-------|
|---2-2---0-0---2-2----------2-2---0-0---2-2-------|
|-3-----------3------------------------3-----------|
|-------3------------------1-----3-----------------|
|-------------------1------------------------1-----|

Saw you hanging from a tree, and I made believe it was me.

Verse 3:
[ Tab from: http://www.guitartabs.cc/tabs/v/velvet_underground/im_sticking_with_you_intro_tab.html ]
|---1-1---0-0---1-1----------1-1---0-0---1-1-------|
|---1-1---1-1---1-1----------2-2---1-0---1-1-------|
|---2-2---0-0---2-2----------2-2---0-0---2-2-------|
|-3-----------3------------------------3-----------|
|-------3------------------1-----3-----------------|
|-------------------1------------------------1-----|

I'm sticking with you, 'cause I'm made out of glue.   

|---1-1---0-0---1-1----------1-1---0-0---1-1-------|
|---1-1---1-1---1-1----------2-2---1-0---1-1-------|
|---2-2---0-0---2-2----------2-2---0-0---2-2-------|
|-3-----------3------------------------3-----------|
|-------3------------------1-----3-----------------|
|-------------------1------------------------1-----|

Anything that you might do, I'm gonna do too.

Bridge:

|-0---------------------0---------------------------|
|-1---------------------0---------------------------|
|-2---------------------1---------------------------|
|-2---------------------2---------------------------|
|-0---------------------2---------------------------|
|-0---------------------0---------------------------|

Moon people go into the stratosphere,

|-0---------------------0---------------------------|
|-1---------------------0---------------------------|
|-2---------------------1---------------------------|
|-2---------------------2---------------------------|
|-0---------------------2---------------------------|
|-0---------------------0---------------------------|

Soldiers fighting with their Kong,

|--------0-----------------------3------------------|
|--------1-----------------------0------------------|
|--------0-----------------------0------------------|
|--------2-----------------------0------------------|
|--------3-----------------------2------------------|
|--------0-----------------------3------------------|

But with you by my side I can do anything,

|-------2-----------------------------0-------------|
|-------4-----------------------------0-------------|
|-------4-----------------------------1-------------|
|-------4-----------------------------2-------------|
|-------2-----------------------------2-------------|
|-------2-----------------------------0-------------|

When we swing, we hang past right and wrong.
Comments