Velvet Underground - I'll Be Your Mirror Chords & Tabs

 

Velvet Underground Chords & Tabs

Version: 2 Type: Tab 0 ratings
1 star 2 stars 3 stars 4 stars 5 stars
comments

I'll Be Your Mirror Tab

   
Velvet Underground - I'll Be Your Mirror

Tabbed by Uchiha23

capo on 5 fret

     {D}           {G}             {D}              {G}
*1a --2---0--2-0-2--3---3-5-3-0-----2---2-0--2-0-2---3---3-5-3-0----|
*2E ---------0-0--------0-7-5-3-0-----3------0-0---------0-7-5-3-0--|
*3C --2---2------2--0---------------2-----2------2---0--------------|
*4G ----------------------------------------------------------------|
*5D ----------------------------------------------------------------|
*6A ----------------------------------------------------------------|


 {D}              {G}             {D}              {G}
--2---2-0--2-0-2---3---3-5-3-0-----2---2-0--2-0-2---3---3-5-3-0----|
----3------0-0---------0-7-5-3-0-----3------0-0---------0-7-5-3-0--|
--2-----2------2---0---------------2-----2------2---0--------------|
-------------------------------------------------------------------|
-------------------------------------------------------------------|
-------------------------------------------------------------------|

I'll be your mirror ...               in case you don't know ...
 {A}             {D}              {G}            {A}
-----5---5-3-2-0--2--2--0h2-0---2-----3--5-3-0--------5---3------|
--2---------------3--3--3-----3----0--0--7-5-3-0--2-x-2---2------|
--------------------------------------------------2-x-2---2------|
-----------------------------------------------------------------|
-----------------------------------------------------------------|
-----------------------------------------------------------------|
[ Tab from: http://www.guitartabs.cc/tabs/v/velvet_underground/ill_be_your_mirror_tab_ver_2.html ]
- the wind .....         the light on your door ...
 {D}          {G}            {A}         {D}
--2---0-2-0-2--3--3--5-3-0-------5-3-2-0-----2--0h2-0h2-0h2-0h2--|
--------0-0----0--0--7-5-3-0--2-----------3--3--3---3---3---3----|
--2---2-----2-----------------2-----------2----------------------|
-----------------------------------------------------------------|
-----------------------------------------------------------------|
-----------------------------------------------------------------|
- night has seen your mind .... twisted and unkind ....
 {G   / A  }{D}                 {G  / A  }{D}
-----3----2-----2--0h2-0-0h2-0-----3----2-----2--2-----2---------|
--0-----2----3--3--3-----3-------0----2----3--3----3-------------|
--0-----2----2-------------------0----2----2---------2-----------|
-----------------------------------------------------------------|
-----------------------------------------------------------------|
-----------------------------------------------------------------|

- show that you are blind
 {G   / A  }{D}
-----3----3-----2--2-----2------|
--0-----2----3--3----3----------|
--0-----2----2---------2--------|
--------------------------------|
--------------------------------|
--------------------------------|

- your hands          'cause I see you
{Em}              {Em}              {G}
--------0---0------------0---0-------------3---3-------|
------0---0---0--------0---0---0---------0---0---0-----|
----0-----------0----0-----------0-----0-----------0---|
--2----------------2-----------------0-----------------|
-------------------------------------------------------|
-------------------------------------------------------|

 {A}                 {A}
---------------------------------------|
---------------------------------------|
--2--x---2-2---2-2-2--x---2-2---2-2-2--|   ...
--2--x---0-0h2-2-0-2--x---0-0h2-2-0-2--|
--0--x---0-0---0-0-0--x---0-0---0-0-0--|
---------------------------------------|
Comments