Velvet Underground - I'll Be Your Mirror Chords & Tabs

 

I'll Be Your Mirror Chords & Tabs

Velvet Underground Chords & Tabs

Version: 1 Type: Tab 0 ratings
1 star 2 stars 3 stars 4 stars 5 stars
comments

I'll Be Your Mirror Tab

   
#----------------------------------PLEASE NOTE---------------------------------#
#This file is the author's own work and represents their interpretation of the #
#song. You may only use this file for private study, scholarship, or research. #
#------------------------------------------------------------------------------#
The Velvet Underground
I'll be your mirror

capo 5th fret

     {D}           {G}             {D}              {G}
--2---0--2-0-2--3---3-5-3-0-----2---2-0--2-0-2---3---3-5-3-0----
---------0-0--------0-7-5-3-0-----3------0-0---------0-7-5-3-0--
--2---2------2--0---------------2-----2------2---0--------------
----------------------------------------------------------------
----------------------------------------------------------------
----------------------------------------------------------------

 {D}              {G}             {D}              {G}
--2---2-0--2-0-2---3---3-5-3-0-----2---2-0--2-0-2---3---3-5-3-0----
----3------0-0---------0-7-5-3-0-----3------0-0---------0-7-5-3-0--
--2-----2------2---0---------------2-----2------2---0--------------
-------------------------------------------------------------------
-------------------------------------------------------------------
-------------------------------------------------------------------

(I'll be your mirror ...               in case you don't know ...)
 {A}             {D}              {G}            {A}
-----5---5-3-2-0--2--2--0h2-0---2-----3--5-3-0--------5---3------
--2---------------3--3--3-----3----0--0--7-5-3-0--2-x-2---2------
--------------------------------------------------2-x-2---2------
-----------------------------------------------------------------
-----------------------------------------------------------------
-----------------------------------------------------------------
[ Tab from: http://www.guitartabs.cc/tabs/v/velvet_underground/ill_be_your_mirror_tab.html ]
 {D}          {G}            {A}         {D}
--2---0-2-0-2--3--3--5-3-0-------5-3-2-0-----2--0h2-0h2-0h2-0h2--
--------0-0----0--0--7-5-3-0--2-----------3--3--3---3---3---3----
--2---2-----2-----------------2-----------2----------------------
-----------------------------------------------------------------
-----------------------------------------------------------------
-----------------------------------------------------------------

 {G   / A  }{D}                 {G  / A  }{D}
-----3----2-----2--0h2-0-0h2-0-----3----2-----2--2-----2---------
--0-----2----3--3--3-----3-------0----2----3--3----3-------------
--0-----2----2-------------------0----2----2---------2-----------
-----------------------------------------------------------------
-----------------------------------------------------------------
-----------------------------------------------------------------


 {G   / A  }{D}
-----3----3-----2--2-----2------
--0-----2----3--3----3----------
--0-----2----2---------2--------
--------------------------------
--------------------------------
--------------------------------

{Em}              {Em}              {G}
--------0---0------------0---0-------------3---3-------
------0---0---0--------0---0---0---------0---0---0-----
----0-----------0----0-----------0-----0-----------0---
--2----------------2-----------------0-----------------
-------------------------------------------------------
-------------------------------------------------------

 {A}                 {A}
---------------------------------------
---------------------------------------
--2--x---2-2---2-2-2--x---2-2---2-2-2-- 
--2--x---0-0h2-2-0-2--x---0-0h2-2-0-2--
--0--x---0-0---0-0-0--x---0-0---0-0-0--
---------------------------------------


Tabman_007
Comments