Velvet Underground - Here She Comes Now Chords & Tabs

 

Velvet Underground Chords & Tabs

Version: 3 Type: Tab 0 ratings
1 star 2 stars 3 stars 4 stars 5 stars
comments

Here She Comes Now Tab

   
Tabbed By : Robert Sizemore
e-mail: rks8207@uncw.edu
Artists: Velvet Underground
Album: White Light White Heat
Song: Here She Comes Now
Tuning: Standard

This tab is probably not near 100% accurate, but its the ONLY tab on the whole interwebz 
is the VU version and NOT the nirvana version. Feel free to comment and make 
if you have a better idea I will change it.


Intro

Guitar 1:

e-----------------------------------------------------|
b---7-7---7-7---7----8-8---8-8-10-8-------------------|
g---7-7---7-7---7----7-7---7-7--7-7-------------------|
d-0-----0-----0----0-----0----------------------------|
a-----------------------------------------------------|
E-----------------------------------------------------|

Guitar 2 (in after first measure):

e---------------------7--------5~~~------------------|
b-----7-------5~~~-----------------------------------|
g-----------------5/7---7---5------------------------|
d-5/7---7--5-----------------------------------------|
a----------------------------------------------------|
E----------------------------------------------------|

Verse

Guitar 1:

(now, if she ever comes now now, if she ever comes now now)
e-----------------------------------------------------|
b---7-7---7-7---7----8-8---8-8-10-8-------------------|
g---7-7---7-7---7----7-7---7-7--7-7-------------------|
d-0-----0-----0----0-----0----------------------------|
a-----------------------------------------------------|
E-----------------------------------------------------|

Or play triplets:

e-----------------------------------|
b-7-7-7--7-7-7--7-7-7--7-7-7--------|
g-7-7-7--7-7-7--7-7-7--7-7-7--------| x 4
d-7-7-7--7-7-7--7-7-7--7-7-7--------|
a-5-5-5--5-5-5--5-5-5--5-5-5--------|
E-----------------------------------|


Chorus

   (ohhh, she  looks  so   good,   ohhh...)
e------------------------------------------------|
b------7-7-7-----7-7-7--3-3-3-3-----3-3----------|
g------7-7-7-----7-7-7--4-4-4-4h5-5-4-4----------|
d--7-7-7-7-7-7-7-7-7-7--5-5-5-5-5-5-5-5----------|
a--5-5-5-5-5-5-5-5-5-5--5-5-5-5-5-5-5-5----------|
E-----------------------3-3-3-3-3-3-3-3----------|
[ Tab from: http://www.guitartabs.cc/tabs/v/velvet_underground/here_she_comes_now_tab_ver_3.html ]
(just look and see...)
e-----------------------------------------------------------|
b--3-3-3--3-3-3--3-3-3--3-3-3--3-3-3--3-3-3--3-3-3--3-3-2---|
g--3-3-3--3-3-3--3-3-3--3-3-3--3-3-3--3-3-3--3-3-3--3-3-2---|
d--3-3-3--3-3-3--3-3-3--3-3-3--3-3-3--3-3-3--3-3-3--3-3-2---|
a--1-1-1--1-1-1--1-1-1--1-1-1--1-1-1--1-1-1--1-1-1--1-1-0---|
E-----------------------------------------------------------|

Bridge

Guitar 1:

(intro rhythm or D5 triplets)

Guitar 2:

e---------------------7--------5~~~------------------|
b-----7-------5~~~-----------------------------------|
g-----------------5/7---7---5------------------------|
d-5/7---7--5-----------------------------------------|
a----------------------------------------------------|
E----------------------------------------------------|

Verse 2

Guitar 1:

e-----------------------------------|
b-7-7-7--7-7-7--7-7-7--7-7-7--------|
g-7-7-7--7-7-7--7-7-7--7-7-7--------| x 4
d-7-7-7--7-7-7--7-7-7--7-7-7--------|
a-5-5-5--5-5-5--5-5-5--5-5-5--------|
E-----------------------------------|

Chorus (same as first chorus):

(ohhh, she looks so good...)
e------------------------------------------------|
b------7-7-7-----7-7-7--3-3-3-3-----3-3----------|
g------7-7-7-----7-7-7--4-4-4-4h5-5-4-4----------|
d--7-7-7-7-7-7-7-7-7-7--5-5-5-5-5-5-5-5----------|
a--5-5-5-5-5-5-5-5-5-5--5-5-5-5-5-5-5-5----------|
E-----------------------3-3-3-3-3-3-3-3----------|

(just look and see...)
e-----------------------------------------------------------|
b--3-3-3--3-3-3--3-3-3--3-3-3--3-3-3--3-3-3--3-3-3--3-3-2---|
g--3-3-3--3-3-3--3-3-3--3-3-3--3-3-3--3-3-3--3-3-3--3-3-2---|
d--3-3-3--3-3-3--3-3-3--3-3-3--3-3-3--3-3-3--3-3-3--3-3-2---|
a--1-1-1--1-1-1--1-1-1--1-1-1--1-1-1--1-1-1--1-1-1--1-1-0---|
E-----------------------------------------------------------|

Fade out (play intro or D5 continuously):

(if she ever, ever, ever comes now now nah nah now, etc)

e-----------------------------------|
b-7-7-7--7-7-7--7-7-7--7-7-7--------|
g-7-7-7--7-7-7--7-7-7--7-7-7--------| (play continuously)
d-7-7-7--7-7-7--7-7-7--7-7-7--------|
a-5-5-5--5-5-5--5-5-5--5-5-5--------|
E-----------------------------------|

***play intro or mess around on the lead guitar


| /  slide up
| \  slide down
| h  hammer-on
| p  pull-off
| ~  vibrato
| +  harmonic
| x  Mute note
Comments