Velvet Underground - Femme Fatale (riff) Chords & Tabs

 

Velvet Underground Chords & Tabs

Version: 1 Type: Tab 0 ratings
1 star 2 stars 3 stars 4 stars 5 stars
comments

Femme Fatale (riff) Tab

   
#----------------------------------PLEASE NOTE---------------------------------#
#This file is the author's own work and represents their interpretation of the #
#song. You may only use this file for private study, scholarship, or research. #
#------------------------------------------------------------------------------#
The Velvet underground
Femme Fatale
(capo on 3 fret)
[ Tab from: http://www.guitartabs.cc/tabs/v/velvet_underground/femme_fatale_riff_tab.html ]
riff 1
(intro)
  Amaj7              Dmaj7               
--------0----0-------------0----0-----
------2----2---2---------2----2---2---
----1------------1-----1------------1-
--2------------------0----------------
--------------------------------------
--------------------------------------
verse(w/riff 1)
 
riff 2
 {Bm}               {E}
--------2----2-------------0----0------
------3----3---3---------0----0---0----
----4------------4-----1------------1-- 
--4------------------2-----------------
---------------------------------------
---------------------------------------
(w/riff 2)
chorus
riff 3
 {A}                {D}
---------------------2-2-2-2--2h3-2-0-2--
--2-2-2-2--2-2-2-2---3-3-3-3--3---3-3-3--
--2-2-2-2--2-2-2-2---2-2-2-2--2---2-2-2--
--2-2-2-2--2-2-2-2-----------------------
-----------------------------------------
-----------------------------------------
(w/riff 3)
'Cause everybody knows        (she's a femme fatale)
the things she does to please (she's a femme fatale)
She's just a little tease     (she's a femme fatale)

riff 4
  Bm                 Bm
--------2----2-------------2----2------
------3----3---3---------3----3---3----
----4------------4-----4------------4--
--4------------------4-----------------
---------------------------------------
---------------------------------------
(w/riff 4)

riff 5
  G                  E
--------3----3-------------0----0--------
------3----3---3---------0----0---0------
----4------------4-----1------------0h1--
--5------------------2-------------------
-----------------------------------------
-----------------------------------------
(w/riff 5) 
she talks
Comments