Velvet Underground - Andys Chest Chords & Tabs

 

Velvet Underground Chords & Tabs

Version: 1 Type: Bass Tab 0 ratings
1 star 2 stars 3 stars 4 stars 5 stars
comments

Andys Chest Bass Tab

andys chest bass tab
by daff

this tab isnt exactly right but it sounds similar
to the original.

verse

G------------------------------------------------|
D-----7---5--------------------------------------|
A--5-7-7-5-7-5---5-------------------------------|
E-7-----------7-5--------------------------------|

chorus
[ Tab from: http://www.guitartabs.cc/tabs/v/velvet_underground/andys_chest_btab.html ]
G-----7-08-09-010---10-9-------------------------|
D--7-5------------------10-9---------------------|
A-5----------------------------------------------|
E------------------------------------------------|

bit after chorus

G------------------------------------------------|
D---------5-----5--------------------------------|
A--5-78-79-7-5-5---------------------------------|
E-7-----------7----------------------------------|

solo

play the bit after the chorus


hope you like it.
Comments