Velvet Revolver - You Got No Right Chords & Tabs

 

You Got No Right Chords & Tabs

Velvet Revolver Chords & Tabs

Version: 1 Type: Tab 0 ratings
1 star 2 stars 3 stars 4 stars 5 stars
comments

You Got No Right Tab

   
Gtr I (E A D G B E) - \'Slash\'
Gtr 2 (E A D G B E) - \'Dave Kushner\'

 4/4
  Gtr I

::Intro riff - work timing yourself::
  
|----------------------------------------|
|----------------------------------------|
|-2-2-2---2-2-2---2-2-2-2---2----2-------|
|-0-0-0-2-0-0-0-2-0-0-0-0-2-0-2--2--5----|
|-------0-------0---------0---0--0--3----|
|----------------------------------------|

::Verse 1 - with intro riff:

\"I fell through the ice
She won\'t be coming back again
It never wins to lie
She said you\'ll never have no rights\"

::verse 2 - played with below clean guitar riffs and chords::

>>chords<<
  
|-------------------|
|-------------------|
|-------------------|
|-3------5-----7----|
|-1------3-----5----|
|-------------------|

>>Riff<<

|---------0----------------0--------0h2----0-------0-------0-------0h2---|
|-----2-----3----------2-----3----------3----3-------3-------3---------3-|
|---3---------2------3---------2---------------2-------2-------2---------|
|-0-----0-------0--0-----0-------0---------------0-------0-------0-------|
|------------------------------------------------------------------------|
|------------------------------------------------------------------------|

 
|---------0-------|---------0-------|-0h2-------0h2---|-----0h2----|
|-----2-----3-----|-----2-----3-----|-----3---------3-|------------|
|---3---------2---|---3---------2---|-------2---------|-2----------|
|-0-----0-------0-|-0-----0-------0-|---------0-------|---0--------|
|-----------------|-----------------|-----------------|------------|
|-----------------|-----------------|-----------------|------------|

::Verse 3 - played with below riff and chords, listen to song for timing::

>>chords<<
  
|-----------------|
|-----------------|
|-----------------|
|-3-----5----2----|
|-1-----3----0----|
|-----------------|

>>riff<<
  
|---------------------------------|----------------------------|
|-----------------------3-------3-|----------------------------|
|-------5-------7-----------------|-------5-------7-------0----|
|---------------------------------|----------------------------|
|---3h5-----3-5-----3-5-----3-5---|---3h5-----3-5-----3-5------|
|-5-------5-------5-------5-------|-5-------5-------5----------|

::Verse 4 - chords given with lyrics::
  
|---------------------|
|---------------------|
|-------3--------5----|
|---------------------|
|---3-5------3-5------|
|-5--------5----------|

 Bb
\"You got no right
C
To keep me waiting here
Bb
You got no right
C
To keep the pain in here
Bb
That holds the crown\"

::CHORUS - Chords with lyrics::

 Bb                 G       D                
\"And if I fall apart on the outside (You really don\'t believe me)
Bb           G               D
And if I take it to the brink
Bb            G             D   
And if I fall apart on the outside / (You really don\'t believe me) 
Bb             G                   D
You would have barely seen me breathe\"

::Bridge - chords with lyrics::
 Em           G         D   
\"And if I meet you out tonight
Em           G          D
Will you be loving me forever
Em           G          D 
It\'s always over after the night
Em
It\'s always colder after the night\"
[ Tab from: http://www.guitartabs.cc/tabs/v/velvet_revolver/you_got_no_right_tab.html ]
::Solo - best solo on the album, chords are easy and same used in the song, work them out yourself::

  
|-------------------------------------------------------------4-5-7---|
|-------------------------------------------------3-4-6-4-5-7---------|
|-------------------------------------------3-4-6---------------------|
|-------------------------------4-5-7-6-7-9---------------------------|
|-------2-3-5-2-3-5-4-5-7-4-5-7---------------------------------------|
|-2-3-5---------------------------------------------------------------|


                                                                                         ~~
 
|-7-8-10-7-8-10-9-10--(9)---12b14-13-----14b16---------------14-14pb16==14--12-14-------------|
|------------------------------------15---------18-17-----------------------------15-12-15----|
|------------------------------------------------------15b17----------------------------------|
|---------------------------------------------------------------------------------------------|
|---------------------------------------------------------------------------------------------|
|---------------------------------------------------------------------------------------------|


                                           ~~                                       ~~
   
|---------------------------------------------------------------------------------------|
|----------------------------------------------------13----12-13-15-15b17-13-12-13-15---|
|-14r==14----12b14--12b14--12r=12---10-12-14---12-14----14------------------------------|
|---------------------------------------------------------------------------------------|
|---------------------------------------------------------------------------------------|
|---------------------------------------------------------------------------------------|


   
|-18-17-15--19b21-18-16-----------------------------21b22.5--21b22.5--19-21---------19-------------------------------------------|
|-----------------------19-20-22--22b24-(22)-22b24--------------------------21b22.5----20--21b22-21b22-21b22-21b22--19pb20r==19--|
|--------------------------------------------------------------------------------------------------------------------------------|
|--------------------------------------------------------------------------------------------------------------------------------|
|--------------------------------------------------------------------------------------------------------------------------------|
|--------------------------------------------------------------------------------------------------------------------------------|


::Verse 5 - played with intro riff::

\"I broke through the ice
She won\'t be coming back again
It\'s been a year and a night\"

::CHORUS - Chords with lyrics, Scott just keeps singing the chorus in diff. octaves till ending::

 Bb                 G       D                
\"And if I fall apart on the outside (You really don\'t believe me)
Bb           G               D
And if I take it to the brink
Bb            G             D   
And if I fall apart on the outside / (You really don\'t believe me) 
Bb             G                   D
You would have barely seen me breathe\"

::Outro - small riff type thing from Slash::

|----------------------------------|
|----------------------------------|
|----------------------------------|
|-4S5S4S5S4--0---------------------|
|----------------------------------|
|---------------5--7s8--7s5s=10----|

::finish::
Comments